Guitar Tabs, Chords and Lyrics


Just Until Sundown   Further Seems Forever



Further Seems Forever-Just Until Sundown.

Tabbed By EmoDragRacer.

Standard Tune. add in where needed.

Intro:
Guitar 1.

|--------------------------------------|
|--------------------------------------|
|--------------------------------------|
|-555-333-111111-8----1----5----1-5-3-1|
|-555-333-111111-8----1----5----1-5-3-1|
|-333-111-xxxxxx-6----x----3----x-3-1-x|

Pre-Verse:                Verse: Solo

|----------------------||-----------------------------|
|----------------------||:-------?------------?------:|
|----------------------||----2-----2------------2-----|
|-555-333-111111-------||------3-----3--1/0\1-----3---|
|-555-333-111111-------||:-1-------------------------:|
|-333-111-000000-------||-----------------------------|

Pre-Chorus:		Chorus:

|----------------------|----------------------------------------------|
|----------------------|----------------------------------------------|
|----------------------|3-3333-333------------------------------------|
|-5-555--3-333--111111-|3-3333-333--1-1111-111--5-5555-555-1-1111-111-|
|-5-555--3-333--111111-|1-1111-111--1-1111-111--5-5555-555-1-1111-111-|
|-3-333--1-111--000000-|------------0-0000-000--3-3333-333-0-0000-000-|

Chorus continued:

|-----------------------------------------------------|
|-----------------------------------------------------|
|---------10------------------------------------------|
|-555555--10------5-555--1-111--3-33333---------------|
|-555555--8-------5-555--1-111--3-33333---------------|
|-333333--8-------3-333--0-000--1-11111---------------|


Bridge:

|--------------------------------------------------------|
|--------------------------------------------------------|
|----------10------14-x-10-x-14-x-10-x-14-x-10-x-14-x-10-|
|--555555--10-------x-x--x-x--x-x--x-x--x-x--x-x--x-x--x-|
|--555555--88------12-x--8-x-12-x--8-x-12-x--8-x-12-x--8-|
|--333333--88--------------------------------------------|

Spent too many hours holding up walls
standing in corners and clenching my jaw
watching you watching the ones that I wanted to be.

Blaming this all on the moment
blaming this all on my views
blaming the mood of the music
blaming it all on you.
All on you and me.

Just because you said what you wanted
doesn't make it right.
Just because the moment was heated
doesn't mean that I wanted to fight.
And even though I saw your anger
even though I saw your face
the words that you cited were chosen
not fate, not spoken in haste.

Well just for the moment, just one more time
just one more second and we'll be just fine
this could be just, just in case it's the last time.
This could be the last time.

Just until sundown, just one more day
I could hold you.
Just until sundown, just one more day
I would hold you without you pushing me away.



Important: The song above is NOT stored on the Chordie server. The original song is hosted at www.guitaretab.com. Chordie works as a search engine and provides on-the-fly formatting. Chordie does not index songs against artists/composers will. To remove this song please click here.

This song is displayed as text-only. Transposing and tuning is only available for chordpro-songs.

Login - add to songbook

Rating click stars to rate

Layout
Accuracy

SHARE PAGE  




You need to log in to post comments