Chordie logo

New Years Project   Further Seems Forever



By: Mike Stewart nousdetestonsfrancais@hotmail.com
Tuned ½ step down (I think all Further songs are, but not sure)

The Electric Version is slightly different, but the verse and pre chorus are
exactly the same.


This Part is the Verse/Intro (there are actually 2 guitars playing here, but
I only tabbed out one of them
E|--------------------------------------------------------------------|
B|-3-----3-----3-----3-----5/7--8------8-----8-----10----10-----10----|
G|---0-----0-----0-----0----------0------0-----0------0-----0------0--|
D|-----0-----0-----0-----0----------0------0-----0------0-----0------0|
A|-2-----3-----3-----3-----3/5--7------7-----7------9-----9-----9-----|
E|--------------------------------------------------------------------|

Pre-Chorus
E|--------------------|
B|--------------------|
G|----5--4-5-4--------|
D|----5--4-5-4----5---|
A|----3--2-3-2----5---|
E|----------------3---|

Chorus
E|-----------------------------------------3---2---5--2---------------|
B|------------------------------------------3---3---3--3--------------|
G|---------------------------------5-5-5-----0---0---0--0-play this---|
D|---5--5----5-5---5-5-5---2-2-2---5-5-5----------------------3 times-|
A|---5--5----5-5---5-5-5---2-2-2---3-3-3------------------------------|
E|---3--3----3-3---3-3-3---0-0-0--------------------------------------|

E|--------------------------------------------------------------------|
B|-----------------------------------12h13-15----12h13-15—------------|
G|-------------------------5-5-5—-12h14------12h14----------continued-|
D|5--5--5-5--5-5-5--2-2-2--5-5-5--------------------------------------|
A|5--5--5-5--5-5-5--2-2-2--3-3-3--------------------------------------|
E|3--3--3-3--3-3-3--0-0-0---------------------------------------------|






E|-------------------14p12-12h14-12h14---15----|
B|-------12h13-15p12---------------------------|
G|-12h14---------------------------------------|
D|---------------------------------------------|
A|---------------------------------------------|
E|---------------------------------------------|


Your hands didnt move
well neither did mine.
New Years will bring
so much to say
but nothing comes out right
both of us left without words
both of us lost in this world
it's softer than ever before.
And you were the outline
of everything you would become.
The keeper of these hands.
To hold you now
it is a far cry more than anything that I deserve.
I'm waiting to give you whatever the world may bring
I'd give you my life
cause I don't own anything.
It seemed like the bottom was all that I had until now
I'd give you my life
if you'd give me yours somehow.
Your hands didn't move
well neither did mine

New Years will bring me to you.
I'm waiting to give you whatever the world may bring
I'd give you my life
cause I don't own anything.
It seemed like the bottle was all that I had until now
I'd give you my life


Important: The song above is NOT stored on the Chordie server. The original song is hosted at www.guitaretab.com. Chordie works as a search engine and provides on-the-fly formatting. Chordie does not index songs against artists/composers will. To remove this song please click here.

This song is displayed as text-only. Transposing and tuning is only available for chordpro-songs.

Login - add to songbook

Rating click stars to rate

Layout
Accuracy

SHARE PAGE  

You need to log in to post comments