Chordie logo


Meantime   Futureheads



---------------------------------------------------------------------------
			     Futreheads - Meantime
---------------------------------------------------------------------------
Tabbed by: Sean	McGlone
Email: sean@webwordwizards.com

Tuning: Standard

Brill song...no tabbs anywhere..
First Tab so any mistakes suggests etc pls email.


Intro:


e|-7------------------------------------------------------------|
B|-7------------------------------------------------------------|
G|-8------------------------------------------------------------|
D|-9------------------------------------------------------------|
A|-9------------------------11-11-11-11-11-11-------------------|
E|-7-7-7-7-7-7--9-9-9-9-9-9-------------------11-11-11-11-11-11-|

e|-7~~~~~~------------------------x-x-x-x-x-x------------|
B|-7~~~~~~------------------------7-7-7-7-7-7------------|
G|-8-RING-------11-----11----8----8-8-8-8-8-8-9-8--9-8---|   Drums come in. 
D|-9~~~~~~~--------11----11-------9-9-9-9-9-9------------|
A|-9~~~~~~~-----------------------9-9-9-9-9-9------------|
E|-7~~~~~~~-----------------------7-7-7-7-7-7------------|

e|-7~~~~~~------------------------x-x-x-x-x-x------------|
B|-7~~~~~~------------------------7-7-7-7-7-7------------|
G|-8-RING-------11-----11----8----8-8-8-8-8-8-9-8--9-8---|   X 2
D|-9~~~~~~~--------11----11-------9-9-9-9-9-9------------|
A|-9~~~~~~~-----------------------9-9-9-9-9-9------------|
E|-7~~~~~~~-----------------------7-7-7-7-7-7------------|

Verse


e|---------------------------------|
B|---------------------------------|
G|---------------------------------|   X 4
D|-6-9-11-11-11-11---11-8-6-6-6-6--|
A|---------------------------------|
E|---------------------------------|

                "False Conversations"
e|-7~~~~~~~-----------------------x-x-x-x-x-x------------|
B|-7~~~~~~~-----------------------7-7-7-7-7-7------------|
G|-8-RING-------11-----11----8----8-8-8-8-8-8-9-8--9-8---|   X 2
D|-9~~~~~~~--------11----11-------9-9-9-9-9-9------------|
A|-9~~~~~~~-----------------------9-9-9-9-9-9------------|
E|-7~~~~~~~-----------------------7-7-7-7-7-7------------|

e|---------------------------------|
B|---------------------------------|
G|---------------------------------|   X 4
D|-6-9-11-11-11-11---11-8-6-6-6-6--|
A|---------------------------------|
E|---------------------------------|

Chorus


e|------------|
B|------------|
G|------------|   Repeated through chorus
D|-9-9-11-13--|
A|-9-9-11-13--|
E|-7-7-9--11--|





Important: The song above is NOT stored on the Chordie server. The original song is hosted at www.guitaretab.com. Chordie works as a search engine and provides on-the-fly formatting. Chordie does not index songs against artists/composers will. To remove this song please click here.

This song is displayed as text-only. Transposing and tuning is only available for chordpro-songs.

Login - add to songbook

Rating click stars to rate

Layout
Accuracy

SHARE PAGE  




You need to log in to post comments