Guitar Tabs, Chords and Lyrics


And You For Me  Gamits

[F]I was standing up [G]on [G#]my
[A]own two feet when I
[A#m]walked down to
meet you at your [F]house.
[F]I'd had enough [G]of [G#]that
[A]same old scene.
I'd been [A#m]wandering around with
everyone but [F]you.

========
=CHORUS=
========
[Dm]I'll [A]be [D]O [A#]K  when you [C]want to play your [F]games
[Dm]I'll [A]feel [D]no [A#]shame when you [C]say that I'm your [F]slave.
[Dm]I  [A]won't [D]feel [A]pain when you [C]tell me I'm the [F]only one for [D]you.
[A#]And [C]you for [F]me.

======FILL========
E|-/6-6----------------|
B|-/6-6-5h6------------|
G|----------7-5--------|
D|---------------------|
A|---------------------|
E|---------------------|


========
=VERSE2=
========
[F]Now it's after dark, down with [A]Val and Steve.
I've done [A#m]everything I can to keep my [F]cool.
[F]One more pass at Val and I'm on my [A]way back to you
and [A#m]me and ordinary lives.

========
=CHORUS=
========

=======SOLO=======
E|--6-6-6-6/5---------------------------6-6-6-6/5--------------------------|
B|--6-6-6-6/5---------------------------6-6-6-6/5--------------------------|
G|------------7-5--5-5-5/3----5-5-----------------7-5--5-5-5/3----5-5------|
D|--------------------------7-7---7-----------------------------7-7---7----|
A|-------------------------------------------------------------------------|
E|-------------------------------------------------------------------------|
E|--6-6-6-6/5--------------------------------------------------------------|
B|--6-6-6-6/5---------------------------6-6-6-6-6-6-5-5-5-5-5-5/slide down-|
G|------------7-5--5-5-5/3----5-5-3-----6-6-6-6-6-6-5-5-5-5-5-5/slide down-|
D|--------------------------7-7--------------------------------------------|
A|-------------------------------------------------------------------------|
E|-------------------------------------------------------------------------|


========
=VERSE3=
========
[F]Damn this Wednesday night, 'twas the to [A]worst date.
I wish [A#m]I could said it's sad to see you [F]go.

========
=CHORUS= w/ slight variation which you can make up yourself
========

Important: The song above is NOT stored on the Chordie server. The original song is hosted at www.guitaretab.com. Chordie works as a search engine and provides on-the-fly formatting. Chordie does not index songs against artists'/composers' will. To remove this song please click here.

Text color:
Chord color:
Chord grids: 
Font size:    
Page size: 

A A# A#m C D Dm F G G#
variations - click chord images

Login - add to songbook

Transpose chords

Tuning

Rating click stars to rate

Layout
Accuracy

SHARE PAGE  




You need to log in to post comments