"yes"; ?> A Good Thief Tips His Hat by Gandalf Murphy and The Slambovian Circus Of Dreams - guitar chords, guitar tabs and lyrics - chordie
 Gm
A good thief tips his hat   
 Eb
A good thief winks his eye  
 Gm
A good thief always smiles  
 Eb
A good thief never lies  
 Cm
He comes to steal your heart 
 Eb
and take you far away  
 Gm
where you can dream your dreams
 Eb
you can learn to play  
 Gm
without fear:

on D string: 5 - 5 - 8-7 - 1

Chorus:

 CmEbGm
 Cause where will he go when the good thief comes around?

 CmEbGm
I said, there's no where to hide when the good thief comes to town...

Solos:

D|-------------------------------------------------------------------||
A|--/10--10-10--9--3bp1-3-5------------------------------------------||
F|---------------------------2-2-------------------------------------||
C|-------------------------------------------------------------------||
G|----------------------------------5/7------------------------------||
D|-------------------------------------------------------------------||


 #2
D|----------------------------------------------12--15-12-b10-10-8--------||
A|b15b----15-15-15/13p10h13-10h13-10-------13-15-------------------10p8---||
F|------------------------------------/12------------------------------9-7||
C|------------------------------------------------------------------------||
G|------------------------------------------------------------------------||
D|------------------------------------------------------------------------||
		 |<--very fast----------->|
D|-------------------------------------------------------------------||
A|-----------------------------------------5/8--b5-8b-5p3/1b---------||
F|--5-7b7p5-7-5--------------------5h7-5h7---------------------------||
C|------------------------5h7-5h7------------------------------------||
G|---------------5h7-5h7---------------------------------------------||
D|-------------------------------------------------------------------||
   |<--- tremolo ------->|
D|--/8--10--12--15--12--15--17--20-17-20-17-20-17-20-17--------------||
A|-------------------------------------------------------------------||
F|-------------------------------------------------------------------||
C|-------------------------------------------------------------------||
G|-------------------------------------------------------------------||
D|-------------------------------------------------------------------||				








Cm Eb Gm
variations - click chord images
Transpose chords:
Tuning:
Cool service:
View: Size:
A  A  A
Rating:
Layout:
  • Currently 2/5 Stars.
  • 1
  • 2
  • 3
  • 4
  • 5
 
Accuracy:
  • Currently 1.6/5 Stars.
  • 1
  • 2
  • 3
  • 4
  • 5
 
click stars to rate
Chordie recommends:
Check out these online guitar lessons
Songbook:
Login to add this song to your songbook
Support the artist
Preview/buy this song
MSN Music
Why this non-profit ad?

 
login to add comments/video/corrections