Guitar Tabs, Chords and Lyrics


Naturals Not In It   Gang Of Four



Song:      Naturals not in it
Band:      Gang of Four
Album:     Entertainment
Guitarist: Andy Gill

Intro with very light reverb
    D C D
E---------|
B---------|
G---7-5-7-|
D---7-5-7-|
A---5-3-5-|    X9
E---------|

Verse/Chorus riff 
    D  C D
E--------------------------------------------------------------|
B--------------------------------------------------------------|
G---77-5-7-x-7-x-7-77777-5-7---7-7-5-7-x-77-----77-5-7x7x777---|
D---77-5-7-x-7-x-7-77777-5-7---7-7-5-7-x-77---5-77-5-7x7x777---|
A---55-3-5-----------------------------------------------------|
E--------------------------------------------------------------|

Lead/Fills for verse
Andy Gill mixes these in with the rythym. 
  Fill 1                       Fill 2
E|----------------------     E|----------------------------
B|----------------------     B|-----------------5b6r5------
G|---7-5-7-x-77---------     G|---7-5-7-x-7-77--------7v---
D|---7-5-7-x-77---------     D|---7-5-7-x-7-77-------------
A|-----------------3----     A|----------------------------
E|--------------3h5----- or  E|----------------------------

Bridge
  "Repackaged Sex..."
E-----------------------|
B-----------------------|
G---77-5-7-x-7x-77777---|
D---77-5-7-x-7x-77777---|
A----5-3-5--------------|
E-----------------------|

Not sure if this is 100% correct but meh sounds good enough to me. A really cool


Important: The song above is NOT stored on the Chordie server. The original song is hosted at www.guitaretab.com. Chordie works as a search engine and provides on-the-fly formatting. Chordie does not index songs against artists'/composers' will. To remove this song please click here.

This song is displayed as text-only. Transposing and tuning is only available for chordpro-songs.

Login - add to songbook

Rating click stars to rate

Layout
Accuracy

SHARE PAGE  




You need to log in to post comments