eToCache5 = ""; ?> Only Happy When It Rains by Garbage - guitar chords, guitar tabs and lyrics - chordie

Only Happy When It Rains

Garbage

 ABC#C#mEF#G#G#m
E|-----5-----7-----4-----4-----------2-----4-----4------|
B|-----5-----7-----6-----5-----------2-----4-----4------|
G|-----6-----8-----6-----6-----1-----3-----5-----4------|
D|-----7-----9-----6-----6-----2-----4-----6-----6------|
A|-----7-----9-----4-----4-----2-----4-----6-----6------|
E|-----5-----7-----------------------2-----4-----4------|


 A5B5C#5E5F5G#5
E|----------------------------------------|
B|----------------------------------------|
G|----------------6-----------------------|
D|----7-----4-----6-----2-----3-----6-----|
A|----7-----4-----4-----2-----3-----6-----|
E|----5-----2-----------------1-----4-----|


Verse 1:

 G#m
I'm only happy when it rains

 F#E
 I'm only happy when it's complicated

 C#mE
 And though I know you can't appreciate it

 F#G#m
 I'm only happy when it rains

 F#E
 You know I love it when the news is bad

 C#mE
 Or why it feels so good to feels so sad

 F#B
 I'm only happy when it rains

Chorus:

Guitar 1 Plays chords or 5ths

Guitar 2

E|---------------|-------4-----------|---------------------|---------------------|
B|-------4-------|-----------4-------|-------------4-------|-------------4-------|
G|-----------6---|-(6)-----------6---|---(6)-----------6---|---(6)-----------6---|
D|---6-----------|-------------------|---------8-----------|---------4-----------|
A|---------------|-------------------|---------------------|---------------------|
E|---------------|-------------------|---------------------|---------------------|


 C#G#ABC#
 Pour your misery down, pour your misery down on me

 G#ABF#
Pour your misery down, pour your misery down on me

Verse 2:

 G#m
I'm only happy when it rains

 F#E
 I feel good when things are going wrong

 C#mE
 I only listen to the sad, sad songs

 F#B
 I'm only happy when it rains

Guitar Solo

 G#m
I only smile in the dark

 F#E
 My only comfort is the night gone black

 C#E
 I didn't accidentally tell you that

 F#G#m
 I'm only happy when it rains

 F#E
 You'll get the message by the time I'm through

 C#mE
 When I complain about me and you

 F#B
 I'm only happy when it rains

Chorus 2:

 C#G#
 Pour your misery down (Pour your misery down)

 AB
 Pour your misery down on me (Pour your misery down)

 C#G#
 Pour your misery down (Pour your misery down)

 AB
 Pour your misery down on me (Pour your misery down)

 C#G#
 Pour your misery down (Pour your misery down)

 AB
 Pour your misery down on me (Pour your misery down)

 C#G#
 Pour your misery down

 A
 You can keep me company

 BF#
 As long as you don't care
 G#m
I'm only happy when it rains

 F#E
 You wanna hear about my new obsession?

 C#E
 I'm riding high upon a deep depression

 G#mE
 I'm only happy when it rains (Pour some misery down on me)

 C#mG#mE
 I'm only happy when it rains (Pour some misery down on me)

 G#mE
 I'm only happy when it rains (Pour some misery down on me)

 C#mG#mEC#m
 I'm only happy when it rains (Pour some misery down on me)

 G#mEC#m
 I'm only happy when it rains (Pour some misery down on me)

Riff B

E|---4-------4-----------------------------|---4-------4-----------------------------|
B|-----------------------------------------|-----------------------------------------|
G|---------------6-(BEND UP 1 FULL sTEP)---|---------------6-(BEND UP 1 FULL sTEP)---|
D|-------6---------------------------------|-------6---------------------------------|
A|-----------------------------------------|-----------------------------------------|
E|-----------------------------------------|-----------------------------------------|
E|---4-------4----------------------------------------|
B|---------------6-(BEND UP THEN BACK DOWN)-4---(4)---|
G|----------------------------------------------------|
D|-------6--------------------------------------------|
A|----------------------------------------------------|
E|----------------------------------------------------|


A A5 B B5 C# C#5 C#m E E5 F# F5 G# G#5 G#m
variations - click chord images
Transpose chords:
Tuning:
Cool service:
View: Size:
A  A  A
Rating:
Layout:
  • Currently 3.1/5 Stars.
  • 1
  • 2
  • 3
  • 4
  • 5
 
Accuracy:
  • Currently 2.9/5 Stars.
  • 1
  • 2
  • 3
  • 4
  • 5
 
click stars to rate
Chordie recommends:
Get acoustic guitar lessons and electric guitar lessons at JamPlay.com
Songbook:
Login to add this song to your songbook
Support the artist
Preview/buy this song
MSN Music
Why this non-profit ad?

 
login to add comments/video/corrections