Guitar Tabs, Chords and Lyrics


Queer  Garbage

|----------------|


|----------------|


|-0-3-5--5b6r5-3-|

|----------------|
|----------------|
|----------------|
|-20----------------------|
|-------20----------------|
|-------------19----------|
|-------------------20----|
|-------------------------|
|-------------------------|
|----------------|
|----------------|
|-0-3-5--5b6r5-3-|
|----------------|
|----------------|
|----------------|
  [G]     [Eb]     [C]     [F]     [Eb]     [C]     [Eb]                                          
|------------------------------------|
|------------------------------------|
|------8----5---------8----5----8----|
|-5----8----5----3----8----5----8----|
|-5----6----3----3----6----3----6----|
|-3--------------1-------------------|

G (queer)
The queerest of the queer

Eb (strangest)
The strangest of the strange

C (cool)
The coldest of the cool

F (lame)
The lamest of the lame

The numbest of the [Eb]dum[dumb]b

C (here)
I hate to see you here
Eb (smile)
You choke behind a smile

(No Chord for rest of chorus)
A fake behind the fear


The queerest of the queer

Verse 2:

Main Guitar Riff
Play this part for the first verse listen to the song for the cues.

|----------------|
|----------------|
|-0-3-5--5b6r5-3-|
|----------------|
|----------------|
|----------------|


This is what he pays me for
I'll show you how it's done
You learn to love the pain you feel
Like father like son

Chorus 2:


G (queer)
The queerest of the queer

Eb (head)
The high inside your head

C (blind)
The blindest of the blind

F (dead)
The deadest of the dead

Eb (starved)
Your hungry cause your starved
C (tears)
While holing back the tears
Eb (smile)
You choke behind a smile

(No Chord for rest of chorus)
A fake behind the fear


The queerest of the queer

For this part here are 2 guitar parts.

   [Bb]      [Gb]      [F]                                                          
|-------------------------|
|-------------------------|
|--3----------------------|
|--3-----4-----3----------|
|--1-----4-----3----------|
|--------2-----1----------|


Riff A (You Can Touch Me If You Want)

E-------------------I
B-------------------I
G-------------------I
D---8---6---3---6---I
A-------------------I
E-------------------I


Bb Gb (good)
I know what's good for you (You can touch me if you want)

Bb F (dyin)
I know you're dying to (You can touch me if you want)

Bb Gb (good)
I know what's good for you (You can touch me if you want)

Bb F (stop)
But you can't stop

Chorus 3:

G (queer)
The queerest of the queer

Eb (strange)
The strangest of the strange

C (cool)
The coldest of the cool

F (lame)
The lamest of the lame

The numbest of the [G]du[dumb]mb

Eb (here)
I hate to see you here

C (smile)
You choke behind a smile

F (fear)
A fake behind the fear

G (queer)
The queerest of the queer

Eb (strange)
The strangest of the strange

C (cool)
The coldest of the cool

F (here)
You're nothing special here

A fake behind the fear


The queerest of the queer

Play The Intro Riff for this part.

Guitar 1
|----------------|
|----------------|
|-0-3-5--5b6r5-3-|
|----------------|
|----------------|
|----------------|


Guitar 2
|-20----------------------|
|-------20----------------|
|-------------19----------|
|-------------------20----|
|-------------------------|
|-------------------------|


I know what's good for you
I know you're dying to
I know what's good for you
I bet you're dying to
You can touch me if you want
You can touch me if you want
You can touch me
You can touch me
But you can't stop

Important: The song above is NOT stored on the Chordie server. The original song is hosted at www.guitaretab.com. Chordie works as a search engine and provides on-the-fly formatting. Chordie does not index songs against artists'/composers' will. To remove this song please click here.

Text color:
Chord color:
Chord grids: 
Font size:    
Page size: 

Bb C Eb F G Gb
variations - click chord images

Login - add to songbook

Transpose chords

Tuning

Rating click stars to rate

Layout
Accuracy

Jango Player

SHARE PAGE  




You need to log in to post comments