"yes"; ?> 13 Times Forever by Garbage - guitar chords, guitar tabs and lyrics - chordie

13 Times Forever

Garbage

 A#5C5C#5D5F5G5G#5
Eb|-------------------------------------------|
Bb|-------------------------------------------|
Gb|---4-----6---- 7---------------------------|
Db|---4-----6-----7-----2-----4-----6-----7---|
Ab|---2-----4-----5-----2-----4-----6-----7---|
Eb|---------------------0-----2-----4-----5---|


Intro: Synth/Bass

Repeat 2X
Eb|-------------------------|
Bb|-------------------------|
Gb|-------------------------|
Db|-------------------------|
Ab|-------------------------|
Eb|---2--2-2--2-2---0-0-0---|


Verse 1:
For the first verse you can play the guitar part or the synth bass part.

Synth Bass x2
Eb|---------------------|----------------------|---------------------|
Bb|---------------------|----------------------|---------------------|
Gb|---------------------|----------------------|---------------------|
Db|---------------------|----------------------|---------------------|
Ab|---------------------|-4--4------2----------|---------------------|
Eb|-2--2-2--2-2---0-0-0-|------0--0------0-0-0-|-2--2-2--2-2---0-0-0-|


Clean Guitar
Eb|------------0----------|
Bb|------0----------0-----|
Gb|--------------------6--|
Db|----8----8-----8-------|
Ab|-9---------------------|
Eb|-----------------------|


Thirteen times you, with my karma
And thirteen times I fucked up your dogma
You taught me to hate
You taught me to crawl

You raised your hand as you raised the bottle
You knock me down but it made me stronger
The harder you hit
The harder you fall

Pre Chorus:
This is the pattern that the pre chorus is played. Listen to song for changes.
Guitar I
x8 x6
Eb|------------|-----------|------------|---------|-----------|-------|
Bb|------------|-----------|------------|---------|-----------|-------|
Gb|------------|------6----|------------|-----6---|-----------|-------|
Db|-6----4-4-4-|-2----6----|-6----4-4-4-|-2---6---|-6---4-4-4-|---6---|
Ab|-6----4-4-4-|-2----4----|-6----4-4-4-|-2---4---|-6---4-4-4-|---6---|
Eb|-4----2-2-2-|-0---------|-4----2-2-2-|-0-------|-4---2-2-2-|---4---|


Guitar II Lead:
Eb|-------------------------|
Bb|---------------(9)~~~~---|
Gb|---8-8-8-8b9r8-----------|
Db|-------------------------|
Ab|-------------------------|
Eb|-------------------------|


And this one is for my mother
What will I dowithout her
 D5C5
 Don't look back  
Don't even bother

And this one is for the father
Who loves his little daughter
 D5C5
 Thought I am  
Don't even bother

Chorus:

X2
|---------------------|-----------------------|
|---------------------|-----------------------|
|-4--------------6----|-----------7----6\\\\--|
|-4----4----2----6----|-7----4----7----6\\\\--|
|-2----4----2----4----|-7----4----5----4\\\\--|
|------2----0---------|-5----2----------------|


 A#5F5
 You can freak out about me

 D5C5
 But you'd lose your mind without me

 A#5F5
 You thought you could see right through me

 D5C5
 But it made no difference to me

 G5F5C#5C5
 Anywayanyway  (Slide the last chord down or use whammy bar)

Verse 2:
Played Same As Verse 1
Synth Bass x2
Eb|---------------------|----------------------|---------------------|
Bb|---------------------|----------------------|---------------------|
Gb|---------------------|----------------------|---------------------|
Db|---------------------|----------------------|---------------------|
Ab|---------------------|-4--4------2----------|---------------------|
Eb|-2--2-2--2-2---0-0-0-|------0--0------0-0-0-|-2--2-2--2-2---0-0-0-|


Clean Guitar
Eb|------------0----------|
Bb|------0----------0-----|
Gb|--------------------6--|
Db|----8----8-----8-------|
Ab|-9---------------------|
Eb|-----------------------|


A free reign gave you ammunition
To play the game and, other women
And something just snapped
And cracked in my brain

A thirteen times I fucked up inside me
The different ways that you tried to harm me
You did it once
You'll do it again

Pre Chorus:
This is the pattern that the pre chorus is played. Listen to song for changes.
Guitar I
x6 x6
Eb|------------|-----------|------------|---------|-----------|-------|
Bb|------------|-----------|------------|---------|-----------|-------|
Gb|------------|------6----|------------|-----6---|-----------|-------|
Db|-6----4-4-4-|-2----6----|-6----4-4-4-|-2---6---|-6---4-4-4-|---6---|
Ab|-6----4-4-4-|-2----4----|-6----4-4-4-|-2---4---|-6---4-4-4-|---6---|
Eb|-4----2-2-2-|-0---------|-4----2-2-2-|-0-------|-4---2-2-2-|---4---|


Guitar II Lead:
Eb|-------------------------|
Bb|---------------(9)~~~~---|
Gb|---8-8-8-8b9r8-----------|
Db|-------------------------|
Ab|-------------------------|
Eb|-------------------------|


And this one is for my sister
You dare to denigrate her
Don't look back
Don't even bother

And this one's for my lover
The one who had to suffer
Thought I am
Don't even bother

Chorus:
X2
|---------------------|-----------------------|
|---------------------|-----------------------|
|-4--------------6----|-----------7----6\\\\--|
|-4----4----2----6----|-7----4----7----6\\\\--|
|-2----4----2----4----|-7----4----5----4\\\\--|
|------2----0---------|-5----2----------------|


 A#5F5
 You can freak out about me

 D5C5
 But you'd lose your mind without me

 A#5F5
 You thought you could see right through me

 D5C5
 But it made no difference to me

 G5F5C#5
 Anywayanyway

 G5F5C#5C5
 Anywayanyway   (Slide the last chord down or use whammy bar)

Verse 3:
Play Clean Guitar Part
Clean Guitar
Eb|------------0----------|
Bb|------0----------0-----|
Gb|--------------------6--|
Db|----8----8-----8-------|
Ab|-9---------------------|
Eb|-----------------------|


Thirteen times, one, thirteen times, two
Thirteen times, three, thirteen times, four
Thirteen times, five, thirteen times, six
Thirteen times, seven, thirteen times eight

A#5 C#5 C5 D5 F5 G#5 G5
variations - click chord images
Transpose chords:
Tuning:
Cool service:
View: Size:
A  A  A
Rating:
Layout:
  • Currently 3/5 Stars.
  • 1
  • 2
  • 3
  • 4
  • 5
 
Accuracy:
  • Currently 2.9/5 Stars.
  • 1
  • 2
  • 3
  • 4
  • 5
 
click stars to rate
Chordie recommends:
Learn how to play guitar at JamPlay.com
Songbook:
Login to add this song to your songbook
Support the artist
Preview/buy this song
MSN Music
Why this non-profit ad?

 
login to add comments/video/corrections