Chordie logo


Calling My America   Gargantua Soul



Tabbed by John Fox

Band  : Guargantua Soul
Album : Impact ('2001)
Song  : Calling My America (Track #1/11)

Standard Tuning (E A D G B E)


Main Riff: 
Guitar 1 
|------------------------------------------------- 
|------------------------------------------------- 
|---8\-----11-11-11--11--11--11---8\--11---------- 
|------------------------------------------------- 
|---7\-----9--9--9---9---9---9----7\--9----------- 
|------------------------------------------------- 
  


Verse: 
Guitar 1 
|------------------------------------------------- 
|------------------------------------------------- 
|--------------------------------3-3--3----------- 
|--------------------------------3-3--3----------- 
|------------------------------------------------- 


Important: The song above is NOT stored on the Chordie server. The original song is hosted at www.guitaretab.com. Chordie works as a search engine and provides on-the-fly formatting. Chordie does not index songs against artists/composers will. To remove this song please click here.

This song is displayed as text-only. Transposing and tuning is only available for chordpro-songs.

Login - add to songbook

Rating click stars to rate

Layout
Accuracy

SHARE PAGE  




You need to log in to post comments