Misty

Errol Garner

 Ebmaj7Bbm7Eb9Abmaj7Abm7Db9
||:-6---|--6--------|--6-8-8-6-8-6-----|--3---------3-|--6-6-6-4-6-4-6-|
||:---8-|--8--------|--6-------6---8-4-|--4-------4---|--4-------4-----|
||:-----|--7---5--6-|--6-------6-------|--5-----5-----|--4-------4-----|
||:-----|--8—8------|--6-------5-------|--6-5-6-------|--4-------3-----|
||:-----|--6--------|--8-------6-------|--------------|--6-------4-----|
||:-----|-----------|--6---------------|--------------|--4-------------|


Ebmaj7 Cm7 Fm7 Bb7 Gm7 C9 Fm9 Bb13 r
|--6---6-----------|--8----------6-----|--3-----3----|--8-------8--:||	e
|--8-9-----8-----8-|--9----------6---6-|--3-----3----|--8-------8--:||	p
|--7-------8--10---|--8----------7-8---|--3-----3----|--8-------7--:||	e
|--8-------8-------|--10-10-10---6-----|--3-----2----|--7-------6--:||	a
|--6-------10------|--8----------8-----|--5-----3----|--8----------:||	t
|--6-------8-------|-------------6-----|--3----------|----------6--:||	x1


Chorus
 Eb6Bbm7Eb7Abmaj7
|--3--|-------------|--13-----------|----------------|-11-----------|
|--4--|-----8-11-13-|--14--14-14-14-|-14-16-17-16-14-|-13--13-13-13-|
|--3--|-8-10--------|--13-----------|-15-------------|-12-----------|
|--1--|-------------|--15-----------|-13-------------|-13-----------|
|-----|-------------|--13-----------|----------------|-11-----------|
|-----|-------------|---------------|----------------|--------------|


 Am7D7F7
|--------------|-12----------------|-10--10-10----13--------|
|------9-11-13-|-13-15-15-15-13-15-|-10--------13-13--15-13-|
|-8-10---------|-12----------------|-11-----------14--------|
|--------------|-14----------------|-10-----------13--------|
|--------------|-12----------------|-12-----------15--------|
|--------------|-------------------|-10-----------13--------|


Gm7 C7 Fm Bb7 End with Ebmaj7 after last verse
|--3—---3---|--8----6---:||		--6--||
|--3----5---|--9----6---:||		--8--||
|--3—---3---|--8----7---:||		--7--||
|--3—---5---|--10---6---:||		--8--||
|--5—---3---|--8----8---:||		--6--||
|--3—-------|-------6---:||		--6--||


Verse – Verse – Chorus – Verse =>
Verse 1
Look at me, Im as helpless as a kitten up a tree;
And I feel like Im clingin to a cloud,
I can t understand
I get misty, just holding your hand.

Verse 2
Walk my way,
And a thousand violins begin to play,
Or it might be the sound of your hello,
That music I hear,
I get misty, the moment you're near.

Chorus
Cant you see that youre leading me on?
And its just what I want you to do,
Dont you notice how hopelessly Im lost
Thats why Im following you.

Verse 3
On my own,
When I wander through this wonderland alone,
Never knowing my right foot from my left
My hat from my glove
Im too misty, and too much in love.

Too misty,and too much in love.....

Hope it works for you. This is my first submission; let me know what you think.
Craig
cmbrodsk@bellsouth.net

Abm7 Abmaj7 Am7 Bbm7 D7 Db9 Eb6 Eb7 Eb9 Ebmaj7 F7
variations - click chord images
Transpose chords:
Tuning:
Cool service:
View: Size:
A  A  A
Rating:
Layout:
  • Currently 3/5 Stars.
  • 1
  • 2
  • 3
  • 4
  • 5
 
Accuracy:
  • Currently 2.7/5 Stars.
  • 1
  • 2
  • 3
  • 4
  • 5
 
click stars to rate
Chordie recommends:
Get acoustic guitar lessons and electric guitar lessons at JamPlay.com
Songbook:
Login to add this song to your songbook
Support the artist
Preview/buy this song
MSN Music
Why this non-profit ad?

 
login to add comments/video/corrections