Callin Baton Rouge

Garth Brooks

e|--2-2-2-0----------------------------------------------------------|

B|----------3-0-2-3--3-3---------------------------------------------|
G|-----------------------2-0-----------------------------------------|
D|---------------------------4-0-------------------------------------|
A|-------------------------------------------------------------------|
E|-------------------------------------------------------------------|
e|--2-2-2-0----------------------------------------------------------|
B|----------3-0-2-3--3-3---------------------------------------------|
G|-----------------------2-0-----------------------------------------|
D|---------------------------4/2-0-----------------------------------|
A|---------------------------------2---------------------------------|
E|-------------------------------------------------------------------|

 BmAGD
 I spent last night in the arms of a girl in Louisiana
 ADGA
And though I'm out on the highway my thoughts are still with her
 BmAGD
 Such a strange combination of a woman and a child
 ADGAD
 such a strange situation stoppin' every hundred miles callin' Baton Rouge

(verse 2)
A replay of last night's events roll through my mind
Except a scene or two erased by sweet red wine
And I see a truck stop sign ahead so I change lanes
I need a cup of coffee and a couple dollars change callin' Baton Rouge

(chorus)
 D
 Operator won't you put me on through,

I gotta send my love down to Baton Rouge,
 D
 Hurry up won't you put her on the line,
 G
I gotta talk to the girl just one more time

Solo : G - A - G - A

(bridge)
D A/C# Bm A (A - Bm - A/C# - walk)
Hello Santha dear, I hope you're feelin' fine
 DA/C#BmA
 And it won't be long until I'm with you all the time
 GADG
But until then I'll spend my money up right down to my last dime
 AD
Oh oh oh in Baton Rouge,

((chorus)
 D
 Operator won't you put me on through,

I gotta send my love down to Baton Rouge,
 D
 Hurry up won't you put her on the line,
 G
I gotta talk to the girl just one more time
 AD-A/C#-Bm-A
Oh oh oh in Baton Rouge,             
 G-Bm-E-Bm-G-A
Sweet Baton Rouge,                   
 D-A/C#-Bm-A
My Baton Rouge,  hey hey hehey

Please Rate
It's my 1st tab (the intro isnt long, i know)


A A/C# Bm D E G
variations - click chord images
Transpose chords:
Tuning:
Cool service:
View: Size:
A  A  A
Rating:
Layout:
  • Currently 3.1/5 Stars.
  • 1
  • 2
  • 3
  • 4
  • 5
 
Accuracy:
  • Currently 3.2/5 Stars.
  • 1
  • 2
  • 3
  • 4
  • 5
 
click stars to rate
Chordie recommends:
Get acoustic guitar lessons and electric guitar lessons at JamPlay.com
Songbook:
Login to add this song to your songbook
Support the artist
Preview/buy this song
MSN Music
Why this non-profit ad?

 
login to add comments/video/corrections