Guitar Tabs, Chords and Lyrics


If Tomorrow Never Comes   Garth Brooks



-------------------------------------------------------------------------------
			 If tomarrow never comes - Garth Brooks
-------------------------------------------------------------------------------
Tabbed by:Austin
Email:sublimedude131@aol.com

Tuning:Regular
Chorus:
e|---------0----------------------2-----------------------------------------|
B|-------1--------1---------3----------3------------1--------0--------------|
G|------2-------2---------2----2-----2----------0--------0-----------0------|
D|-----2-----------------0----------------------------------------0---------|
A|----0---------------------------------------------------------------------|
E|------------------------------------------3------------------3------------|
let chords ring
e|--------------------------------------------------------------------------|
B|--------------------------3------------1--0------0------------------------|
G|---------------0--------------------------0---------2----0----------------|
D|---0-----0---------2/4--------0----2------0--------------------4----------|
A|------0-----------------------------------2-------------------------------|


Important: The song above is NOT stored on the Chordie server. The original song is hosted at www.guitaretab.com. Chordie works as a search engine and provides on-the-fly formatting. Chordie does not index songs against artists'/composers' will. To remove this song please click here.

This song is displayed as text-only. Transposing and tuning is only available for chordpro-songs.

Login - add to songbook

Rating click stars to rate

Layout
Accuracy

SHARE PAGE  




You need to log in to post comments