Guitar Tabs, Chords and Lyrics


Every Now And Then  Garth Brooks



---------------------------------

|-----------2-----------2----------|-----------3-----------3----------|
|------------(3)3-----3--------(0)-|--------------(3)----3---------3--|
|-----0h2---------0----------------|-----0h2----(2)--0----------------|
|-0-----------------------4-2-0----|-0-----------------------4-2------|
|----------------------------------|-----------------------------0----|
|----------------------------------|-3-------3------------------------|
[Bm]     [D/A]       [G]     [D/F#]       [Em]     [D/F#]       [G] [Asus4] 
in between verses and chorus:
[D]     [D]  [A/C#]                              
the chorus:
[Bm]            [F#m7/C#]            [Emadd9]        [D]    [Dsus2] [Asus4] [A] 

Every Now And Then
------------------


I walked down to the park last night
Warm breeze stirring up a soft moonlight
And my mind started drifting way back when
Yes I do think about you every now and then

The other day I saw a car like you used to drive
I got a funny feeling down deep inside
And for the briefest moment I felt a smile begin
Yes I do think about you every now and then

Chorus:
I love my life and I'd never trade
Between what you and me had and the life I've made
She's here and she's real, but you were too
And every once in a while I think about you

I heard a song on the radio just yesterday
The same one you always asked me to play
And when the song was over
I wished they'd played it again
Yes I do think about you every now and then

Repeat Chorus

I've been layin' here all night listenin' to the rain
Talkin' to my heart and trying to explain
Why sometimes I catch myself
Wondering what might have been
Yes I do think about you every now and then

Every now and then
Every now and then

Important: The song above is NOT stored on the Chordie server. The original song is hosted at www.guitaretab.com. Chordie works as a search engine and provides on-the-fly formatting. Chordie does not index songs against artists'/composers' will. To remove this song please click here.

Text color:
Chord color:
Chord grids: 
Font size:    
Page size: 

A A/C# Asus4 Bm D D/F# Dsus2 Em Emadd9 F#m7/C# G
variations - click chord images

Login - add to songbook

Transpose chords

Tuning

Rating click stars to rate

Layout
Accuracy

SHARE PAGE  




You need to log in to post comments