Guitar Tabs, Chords and Lyrics


Adrenaline   Gavin Rossdale



Adrenaline by Gavin Rossdale
Tabbed by Ben Shutt

Intro/Verse
e----------------------------------------------------------|
B----------------------------------------------------------|
G---------------------------5-5-5-5-5-5--2-2-2-2-2-2-------|
D-2-2-2-2-2-2--5-5-5-5-5-5--5-5-5-5-5-5--2-2-2-2-2-2-------|
A-2-2-2-2-2-2--5-5-5-5-5-5--3-3-3-3-3-3--0-0-0-0-0-0-------|
E-0-0-0-0-0-0--3-3-3-3-3-3---------------------------------|

Acoustic Chords             Link to Chorus
e-0--3--0--0------------    e------------------|
B-0--3--1--2------------    B------------------|
G-0--0--0--2------------    G-----0-----0------|
D-2--0--2--2------------    D---4-----4--------|
A-2--2--3--0------------    A-5-----5----------|
E-0--3------------------    E------------------|

Chorus
e---------------------------------------------------------|
B---------------------------------------------------------|
G-555-555--222-222-----------555-555--222-222-------------|
D-555-555--222-222--222-222--555-555--222-222--222-222----|
A-333-333--000-000--222-222--333-333--000-000--222-222----|
E-------------------000-000--------------------000-000----|

e-------------------------------------|
B-------------------------------------|
G-555-555---------------------7-------|
D-555-555--777-777--555-555---7-------|
A-333-333--777-777--555-555---5-------|
E----------555-555--333-333-----------|

Bridge
e-000-000--000-000--555-555--000-000--000-000------|
B-111-111--333-333--555-555--111-111--333-333------|
G-222-222--444-444--666-666--222-222--444-444--7---|
D-333-333--555-555--777-777--333-333--555-555--7---|
A-333-333--555-555--777-777--333-333--555-555--5---|
E-111-111--333-333--555-555--111-111--333-333------|

Outro
e----------------------------------------|
B----------------------------------------|
G----------777-777--555-555--222-222-----|
D-222-222--777-777--555-555--222-222-----|
A-222-222--555-555--333-333--000-000-----|
E-000-000--------------------------------|


Lyrics

(You don't feel the pain)

Too much is not enough
Nobody said this stuff makes any sense
We're hooked again

Point of no return
See how the buildings burn
Light up the night
Such pretty sight

Adrenaline keeps me in the game
Adrenaline you don't even feel the pain
Wilder than your wildest dreams
When you're going to extremes
It takes adrenaline
(You don't feel the pain)

Sail through an empty night
It's only you and I who understand
There is no plan

Get closer to the thrill
Only time will kill
What's in your eyes
Is so alive

Adrenaline keeps me in the game
Adrenaline you don't even feel the pain
Wilder than your wildest dreams
When you're going to extremes
It takes adrenaline

Run through the speed of sound
Every thing slows you down
And all color that surrounds you
Are bleeding to the walls
All the things you really need
Just wait to find the speed
Then you will achieve
Escape velocity

Too much is not enough
Nobody gave it up
Im not the kind
To lay down and die

Adrenaline
keeps me in the game
Adrenaline
you don't even feel the pain
Wilder than your wildest dreams
When you're going to extremes
It takes adrenaline


Adrenaline
Screaming out your name
Adrenaline
you don't even feel the pain
Wilder than your wildest dreams
When you're going to extremes
It takes adrenaline

(Adrenaline)

You don't even feel the pain
You don't even feel the pain
I'm going to extremes
There is nothing in between
You don't even feel the pain
You don't even feel the pain
You don't even feel the pain
You don't even feel the pain

Any corrections please comment.


Important: The song above is NOT stored on the Chordie server. The original song is hosted at www.guitaretab.com. Chordie works as a search engine and provides on-the-fly formatting. Chordie does not index songs against artists'/composers' will. To remove this song please click here.

This song is displayed as text-only. Transposing and tuning is only available for chordpro-songs.

Login - add to songbook

Rating click stars to rate

Layout
Accuracy

SHARE PAGE  




You need to log in to post comments