Cassis

Gazette

 BmGADF#
(in the "I will walk..." part)
e|---2-----3-----0-----2-----2------3------------------------------|
B|---3-----3-----2-----3-----2------3------------------------------|
G|---4-----0-----2-----2-----3------4------------------------------|
D|---4-----0-----2-----0-----4------5------------------------------|
A|---2-----2-----0-----------4------5------------------------------|
E|---------3-----------------2------3------------------------------|
e|----2---0---2---2---0---2-------2------------------------------------------|
B|------0---------------0-----2-----2-----------------3-2--------------------|
G|----------2-------------------2-----2-------2---2--------------------------|
D|--------------0---0-------2-----------2-0-4---4---4------------------------|
A|--2------------------------------------------------------------------------|
E|---------------------------------------------------------------------------|
e|----2---0---2---2---0---2-------2------------------------------------------|
B|------0---------------0-----2-----2----------------------------------------|
G|----------2-------------------2-----2--------------------------------------|
D|--------------0---0-------2-----------2------------------------------------|
A|--2-------------------------------------0----------------------------------|
E|---------------------------------------------------------------------------|


(Intro)
Bm G A D (x4)

 AD
Ah... Zutto kurikaeshiteta zutto kanashimasetebakaridatta
 BmGADBm
      A   (intro x4)              
Ah... Kitto anatasaemo kizutsukete bokuwa ugokenumama
 AD
Ah... Anatani hurerukotoga naze konnani kurushiinodesuka?
 A
Kitto onajikotowo kurikaeshi anatawo ushinatteshimaunoga kowakattakara

 F#Bm
Yorisoukotode nuguoutoshita wasurekirenakatta hiwo
 GAF#BmGA
 Anatawa nanimo kikazuni konotewo nigittekuretane

 DF#GA
 Ashita anatano kimochiga hanaretemo kitto kawarazu aishiteiru
 DF#GA
 Ashita anatani bokuga mienakutemo kitto kawarazu aishiteiru

 GF#BmGF#Bm
 I will walk together, the future not promised
 GF#BmGF#
     (intro x4)                         
It keeps walking together, to the future in which you are...

 DF#GA
 Turaikotosae wasurerukurai anatawo omotteiru
 DF#G
 Aenai yoruwo kazoeru tabini kogareru mune
 F#Bm
Kakechigaino samishisatsunoru douka hitorikiride nakanaide
 GAF#BmGA
 Donnani hanaretemo shinjiaeru hutaride iyou

 DF#GA
 Douka konomama waratteitai anatawo kizutsukesasenaide
 DF#GA
 Tokiga tatsutabi usureteitta annaomoi kurikaeshitakunai
 DF#GA
 Ashita anatano kimochiga hanaretemo kitto kawarazu aishiteiru
 DF#GA
 Ashita anatani bokuga mienakutemo kitto kawarazu aishiteiru
 DF#GA
 Douka bokudakewo mitsumeteite (I will walk together)
 DF#GA
 Douka konotega hodokenuyou (I will walk together)

 GF#BmGF#Bm
 I will walk together, the future not promised
 GFBmGF#
      (outro)                          
It keeps walking together, to the future in which you are...

(Outro - play as many times as you want really)
 DF#GA
Comments/Corrections would be much appreciated :) as I said, it's my first tab and I'd
to know how to improve it if I can

If you'd like acoustic versions of any other GazettE songs please e-mail me - danz.amber@gmail.com
I have no life so I'll probably do it.


A Bm D F F# G
variations - click chord images
Transpose chords:
Tuning:
Cool service:
View: Size:
A  A  A
Rating:
Layout:
  • Currently 2.7/5 Stars.
  • 1
  • 2
  • 3
  • 4
  • 5
 
Accuracy:
  • Currently 2.6/5 Stars.
  • 1
  • 2
  • 3
  • 4
  • 5
 
click stars to rate
Chordie recommends:
Get acoustic guitar lessons and electric guitar lessons at JamPlay.com
Songbook:
Login to add this song to your songbook
Support the artist
Preview/buy this song
MSN Music
Why this non-profit ad?

 
login to add comments/video/corrections