chords played by Synthetiser

 Am/CAm
  Synth plays  while Bass plays (C)

All along the song a distorted guitar follows the bass
 C5
with power chords (for instance, here playing )

Calling All Stations (Banks/Rutherford)
---------------------------------------


 Em
------------------------------------------------------
------------------------------------------------------
------------------------------------------------------
----------------.----------5-----.---------.----------
---sl.-7-5----5-7----- sl.-5-7---7--- 1 -sl2----7-5---
--12/0----7-0---------12/0-----7-----5^(5)/0--------7-


 F/EEmDm/E
---------------------------------------------------------
---------------------------------------------------------
---------------------------------------------------------
---------------------------------------------------------
7~~~-----------------------------------------------------
---------------------------------------------------------


 Am/EEm
----------------------------------------------------------
----------------------------------------------------------
----------------------------------------------------------
-----------------------------------------.-----------5----
------------------------- sl-.-7-5-----5-7------sl-.-5-7--
-------------------------12/-0-----7-0---------12/-0-----7
-----------------------------------------------------
-----------------------------------------------------
---------sl--7-9-7-9~~~~~~---------------------------
.---------/9-----------------------------------------
7------sl--------------------------------------------
------12/--------------------------------------------

(Second Guitar) scratch
-----------------------------------------------------
-------------------------sl--------------------------
-------------------------x/-------7-9~~~~~~^~~~~^~~~-
-------------------------x/---7-9--------------------
----------------------------7------------------------
-----------------------------------------------------


 EAm/EEsus2
  Calling all stations   

 Esus2/BBm
 Can anybody tell me,

long bend
-------------------------------1--------
-----------------------------10^^--------
----------------------------------------
----------------------------------------
----------------------------------------
----------------------------------------

 D/BBm6
  tell me exactly where I am

---------------------------------------------
-----------------------------12/(17)~~~~------
---------------------------------------------
---------------------------------------------
---------------------------------------------
---------------------------------------------

 D/BBm6D/G
  I've lost all sense of direction   

----1--------
--10^^--------
-------------
-------------
-------------
-------------

 Bm/GD/G
   Watching the darkness closing around me

 Bm/GD/G
 Feeling the cold all through my body

 Am
That's why I'm calling all stations

        --------.----------.---.-.-
        ----8h(10)-8--10h(12)-10-8-
        ---------------------------
        ---------------------------
        ---------------------------
        ---------------------------

 C/A
In the hope that someone hears me

-------------
-------------
9~~~~--------
-------------
-------------
-------------

 Em
  A single lonely voice

 Am6-5/EEm
----------------------------------------------
----------------------------------------------
----------------9~~~~~~-----------------------
-------------sl-9~~~~~~-----------------------
------sl-.-5-7/-7~~~~~~-----------------------
-----12/-0---7/-0~~~~~~-----------------------

(Second Guitar, with Clean Tone)
----------------------------------------------
-----------------------------------12~~~~-----
---------------------------11h(12)------------
----------------------------------------------
----------------------------------------------
----------------------------------------------


 Am6-5/EEm
--------------------.----------------
-------------------13-12-10-12~~~~~--
-----------11h(12)-------------------
-------------------------------------
-------------------------------------
-------------------------------------

I feel the sensation disappearing

 Am6-5/EEm
  There's a tingling in my arms

 Am6-5/E
                              long bend
--------------------------------------------------
-------- 1/2-----------------------------1--------
--------11^(11)~~----------------12h(14)^^^^--------
--------------------------------------------------
--------------------------------------------------
--------------------------------------------------

 Em
               And there's a numbness in my hands

 Em
----------------------
----------------------
----------------------
----------------.-----
---sl.-7-5----5-7-----
--12/0----7-0---------


 AmD
 All the broken promises

 GEm
 All my good intentions don't add up to very much

 FD
And I realise whatever happened,

 G
Whatever happened

 GEm
----1--------
--10^^--------
-------------
-------------
-------------
-------------

 Bm/E
      I remember all the moments

 C/ED/E
That I've wasted in my life

 GEm/GBm/GG
All the things I was always gonna do   

 C/AAmC/AAm
 Why is it now when it's too late

 EmEm
That I finally realise what's important to
 D/E
 me

 Em/CD/C
To think that everything that's dear to me

 Em/CD/C
And is always in my heart

 Em/DD
Could so easily be taken

 C/DD
And it's tearing me apart]

 AmC/A
Going over and over in my mind

 Em
relive it one second at a time



------------------------------
--.--.--.-----.---.--.--.-----
-----9-12-9---9------9--9---9-
-11-12-12-9---9--11-12--9---9-
-11-11-11--------11-11--------
------------------------------
------------------------------
--.--.--.-----.---.--.--.-----
-----9-12-9---9------9--9---9-
-11-12-12-9---9--11-12--9---9-
-11-11-11--------11-11--------
------------------------------


 F/EEmF/EEm
Synth :        

 F/E
 .-------------------------
12-------------------------
-----------------7-9-7-9~~~
---------------9-----------
---------sl----------------
--------12/-0--------------


GUITAR SOLO

 ECBm/G
----------1-------- 1 -----------------
-------15^^^~~~~---15^(15)-----fdback---
--------------------------12~~~~~~~~~~~~~
---------------------------------------
---------------------------------------
---------------------------------------


 CBm/G
-----------------------------------
--------- 1 ---- 1---------- sl----
----0-5-7^^-7-5-7^(7)~~~~~~~~~/-----
-----------------------------------
-----------------------------------
-----------------------------------


 CBm/G
----------------------------------------
----------------------------------------
----------------------------------------
----------------------------------------
----sl----5-7-7---5---5h(7)p(5)---5~~~~-
----3/5-7-----------7-----------7-------


 AmDEm
-------------------------------------------1/2-----------
------------ 1 -----------------.--.--.-12^^^(12)~~~~~---
-----12-14-14^--14-12-14-14----11-12-14------------------
--14-----------------------------------------------------
---------------------------------------------------------
---------------------------------------------------------

---------------------------------------------------------
--------------------------------.--.--.------------------
--------------------------------7--9-11-12~~~~~~~~~~~----
---------------------------------------------------------
---------------------------------------------------------
---------------------------------------------------------


 EAm/EEsus2Esus2/B
 Calling all stations     

 BmD/B
Can anybody tell me, tell me exactly where
 Bm6
 I am

 D/BBm/G
How different things look when your all on
 D/G
your own  

 AmC/A
 Watching the darkness closing all around me

 Bsus4BBsus2B
All around me    

 CCsus2
And I look for the feeling

 CCsus2
Of your arms to remind me

 GBm/G
Of everything that's dear to me

 AmC/A
And is always in my heart

 Bm/DD
Could so easily be taken

 G5/DD
And it's tearing me apart

 AmC/A
Going over and over in my mind

 Bsus4BBsus2B
relive it one second at a time  

Any comment : bluerael@caramail.com