Guitar Tabs, Chords and Lyrics


This Is Love  George Harrison

E |------------------------------------------------------------|


B |--7/10—10/12-10-12/15-12/10/12/10---------------10----------|


G |----------------------------------12/11-11/9/11----11/9/11--|

D |------------------------------------------------------------|
A |----------------------------------------------------------12|
E |------------------------------------------------------------|
E |----------------------------------------------------------------|
B |--8-8-7-7-5-5---------------------------------------------------|
G |----------------------------------------------------------------|
D |--5-5-4-4-2-2---------------------------------------------------|
A |----------------------------------------------------------------|
E |----------------------------------------------------------------|
[A]Precious wor[D]ds drift a[G]way from the [Em]meaning
[A]and the sun[D] melts the chi[G]ll from our li[Em]ves    [A]
[G]helping us all t[A]o remember wh[G]at we came here fo[A]r
Chorus (Bm Em Bm Em D F#m D F#m)

This is l[Bmsus4]ove      [Em7sus4]         [Bmsus4]       [Em7sus4]
this [Bm]la la la la l[Em]ove    [D]    [F#m]       [D]   [F#m]

Verse (A D G Em / A G A G A)
Little things that will change you
forever
may appear from way out of the blue
making fools of everybody
who don't understand

Chorus (Bm Em Bm Em D F#m D F#m)

Solo
E |-----------------------------------------------------------|
B |7/10-7/2---7/10-7/2--------------------------------7-5--7-7|
G |---------2----------2—9/11-9-9/12-12-13-12-10--------------|
D |-----------------------------------------------------------|
A |----------------------------------------------10-7-----7---|
E |-----------------------------------------------------------|
E |---------------------------------------------------------------|
B |-9-7-11/9/12-12/14/16/9---7-5---7--5------------------------8--|
G |-------------------------------------7-7-6/7/6/4/6-4/6/7-6/7--6|
D |------------------------7-----7--------------------------------|
A |---------------------------------------------------------------|
E |---------------------------------------------------------------|



Since our problems have been our own creation
They`also can be overcome
when we use the power provided
free to everyone

Chorus (Bm Em Bm Em D F#m D F#m)

Important: The song above is NOT stored on the Chordie server. The original song is hosted at www.guitaretab.com. Chordie works as a search engine and provides on-the-fly formatting. Chordie does not index songs against artists'/composers' will. To remove this song please click here.

Text color:
Chord color:
Chord grids: 
Font size:    
Page size: 

A Bm Bmsus4 D Em Em7sus4 F#m G
variations - click chord images

Login - add to songbook

Transpose chords

Tuning

Rating click stars to rate

Layout
Accuracy

SHARE PAGE  




You need to log in to post comments