Main Riff:
 E
E||--------0----------0--------|--------0----------0--------|
B||--------0----0h2h3----0-----|--------0----0h2h3----0-----|
G||-----1------------------2-1-|-----1------------------2-1-|
D||----------------------------|----------------------------|
A||----------------------------|----------------------------|
E||--0-------------------------|--0-------------------------|
--------0----------0--------|--------0----------0--------||
--------0----0h2h3----0-----|--------0----0h2h3----0-----||
-----1------------------2-1-|-----1------------------2-1-||
----------------------------|----------------------------||
----------------------------|----------------------------||
--0-------------------------|--0-------------------------||


second riff:

E||----------11-----11--------11-----11--|
B||------10----------------10------------|
G||--11----------11-----11--------11-----|
D||--------------------------------------|
A||--------------------------------------|
E||--------------------------------------|
----------12-----12--------12-----12--|----------11-----11--------11-----11|
------10----------------10------------|------10----------------10----------|
--11----------11-----11--------11-----|--11----------11-----11--------11---|
--------------------------------------|------------------------------------|
--------------------------------------|------------------------------------|
--------------------------------------|------------------------------------|


bass for main riff:
d-----2-------2---
a---------245--542
e-0-4-------------


chords:

 EAbF#m7B7AD7D5B
1  2    2  2  x  2
b 0 3 2 0 2 1 3 4
g 1 3 2 2 2 2 2 4
d 2 3 2 1 2 0 0 4
a 2 1 4 2 0 x x 2
e 0 x 2 (0) x x x x

Intro: main riff twice

verse:
 E
Wah Wah (main riff)
 AbF#m7
 You've given me a wah-wah
 F#m7B7
 And I'm thinking of you (second riff)
 F#m7B7
 And all the things that we used to do
 D7D5
 Wah-wah, wah-wah

(MAIN RIFF)

verse:
 E
 Wah-wah
 AbF#m7
 You made me such a big star
 F#m7B7
 Being there at the right time (second riff)
 F#m7B7
 Cheaper than a dime 
 D7D5
 Wah-wah, you've given me your wah-wah, wah-wah (main riff)

chorus:
A E (main riff)
Oh, you don't see me crying
A E (main riff) B
Oh, you don't hear me sighing

verse: (same as others)
Wah-wah
I don't need no wah-wah
And I know how sweet life can be
If I keep myself free from the wah-wah
I don't need no wah-wah

chorus: (same as other)
Oh, you don't see me crying
Hey baby, you don't hear me sighing
Oh, no no-no no

verse: (same as other)
Wah-wah
Now I don't need no wah-wah's
And I know how sweet life can be
If I keep myself free - of wah-wah
I don't need no wah-wah

outro: same as main riff


A Ab B B7 D5 D7 E F#m7
variations - click chord images
Transpose chords:
Tuning:
Cool service:
View: Size:
A  A  A
Rating:
Layout:
  • Currently 3.1/5 Stars.
  • 1
  • 2
  • 3
  • 4
  • 5
 
Accuracy:
  • Currently 2.4/5 Stars.
  • 1
  • 2
  • 3
  • 4
  • 5
 
click stars to rate
Chordie recommends:
Learn to play guitar with video-based, online guitar lessons at JamPlay.com
Songbook:
Login to add this song to your songbook
Support the artist
Preview/buy this song
MSN Music
Why this non-profit ad?

 
login to add comments/video/corrections