Guitar Tabs, Chords and Lyrics


Praying For Time   George Michael



I wanted to easily learn this song by simply searching for the tabs or chords 
online, but I have yet to find even remotely accurate ones. Therefore, I had to 
sit down and learn it myself by ear. This may not be entirely accurate, but I 
think it's a fairly good representation. The recording appears to be in Bb Major, 
but my chords will be written assuming it's being played in A Major. Simply put a 
capo on the first fret and play the chords accordingly to be in pitch with the 
original. Here goes:

Intro and Verse:

Asus2    A Maj9   A Maj7    Dm9/A    Dsus2/A   E7         Repeat

-0---------0--------0---------0--------0-------0---------------------|
-0---------0--------5---------3--------3-------0---------------------|
-6---------6--------6---------2--------2-------1---------------------|
-7---------6--------5---------3--------0-------0---------------------|
-0---------0--------0---------0--------0-------2---------------------|
-X---------X--------X---------X--------X-------0---------------------|


Pre-Chorus:

B min    B min/Maj7   D Maj/A   E9/G#    E7           Repeat   

-2----------2------------2--------2-------0--------------------------|
-3----------3------------3--------3-------0--------------------------|
-4----------3------------2--------4-------1--------------------------|
-4----------4------------4--------2-------0--------------------------|
-2----------2------------0--------X-------2--------------------------|
-X----------X------------X--------4-------0--------------------------|



Important: The song above is NOT stored on the Chordie server. The original song is hosted at www.guitaretab.com. Chordie works as a search engine and provides on-the-fly formatting. Chordie does not index songs against artists'/composers' will. To remove this song please click here.

This song is displayed as text-only. Transposing and tuning is only available for chordpro-songs.

Login - add to songbook

Rating click stars to rate

Layout
Accuracy

SHARE PAGE  




You need to log in to post comments