Guitar Tabs, Chords and Lyrics


No God   Germs



INTRO
E|---------------------------------------------------|
B|---------------------------------------------------|
G|-8--7--7-------------------------------------------|
D|-8--7--7--3--3--3--3--3--3--3--3--3----------------|
A|-6--5--5--3--3--3--3--3--3--3--3--3----------------| repeat this 3 times
E|------------1--1--1--1--1--1--1--1--1--------------|


E|--------------------------------------------------------------|
B|--------------------------------------------------------------|
G|--8--6--------------------------------5-----------------------|
D|--8--6--6--6--6--6--5--5--5--5-----5--------------------------|
A|--6--4--6--6--6--6--5--5--5--5--3 times 12 on the last chord--| 


Important: The song above is NOT stored on the Chordie server. The original song is hosted at www.guitaretab.com. Chordie works as a search engine and provides on-the-fly formatting. Chordie does not index songs against artists'/composers' will. To remove this song please click here.

This song is displayed as text-only. Transposing and tuning is only available for chordpro-songs.

Login - add to songbook

Rating click stars to rate

Layout
Accuracy

Jango Player

SHARE PAGE  




You need to log in to post comments