Guitar Tabs, Chords and Lyrics


American Leather   Germs



x= Palm Mute

Chorus
E---------------------------------|
B---------------------------------|
G------------9--7-----------7-----|
D---9--9--9--9--7--7--7--7--7--7--|
A---9--9--9--7--5--7--7--7--5--7--|
E---7--7--7--------5--5--5-----5--|

Interlude
E------------------|
B------------------|
G---x--x--x--x--5--|
D---x--x--x--x--5--|
A---x--x--x--x--5--|
E------------------|

Riff
E---------------------------------|
B---------------------------------|
G------------------9--9--9--9--9--|
D---7--7--7--7--7--9--9--9--9--9--|
A---7--7--7--7--7--7--7--7--7--7--|


Important: The song above is NOT stored on the Chordie server. The original song is hosted at www.guitaretab.com. Chordie works as a search engine and provides on-the-fly formatting. Chordie does not index songs against artists'/composers' will. To remove this song please click here.

This song is displayed as text-only. Transposing and tuning is only available for chordpro-songs.

Login - add to songbook

Rating click stars to rate

Layout
Accuracy

SHARE PAGE  




You need to log in to post comments