eToCache5 = ""; ?> Find The Time by Get Cape Wear Cape Fly - guitar chords, guitar tabs and lyrics - chordie

Find The Time

Get Cape Wear Cape Fly

-------------------------------------------------------------------------------

-------------------------------------------------------------------------------

G|320033
F#/G|220033
Em7|022033
Dsus4|xx0233
C|x32013
G/C|x22013
Am7|x02013
D|xx0232
C/G|x23033

--Intro:

 GF#/GEm7Dsus4
e|-----3----------3-----------3-----------2h3------|
B|-----3---3------3----3------3----3---------3-----|
G|---0-----0----0------0----0----0------2------2---|
D|------------------------------------0------------|
A|-----------------------------------------------0-|
E|-3-----3----2------0----0------------------------|


 CG/CAm7D(sus4
e|-------3---3------3----3------3--------2h3-------|
B|-------1---1------1----1------1--------3---3-----|
G|-----0----------0-----------0--------2-------2---|
D|---------------------------------0-0-----------0-|
A|-2h3-----3----2------2----0----------------------|
E|-------------------------------------------------|


--Verse 1 (Intro part plays under verses)(0:09):

 GF#/GEm7
  We make lists, we make plans,
 D(sus4C
 to write books, to form bands,
 G/CAm7D(sus4
 Or move to Kreuzberg and escape into the night

 GF#/GEm7
  So pack your bags, let's take control
 Dsus4CG/C
 you and me, let's go the next time you're lonely
 Am7D(sus4
 or the next time that you're free

--Chorus(i wrote it like this to be read alongside the tab)(0:27):

So wa a ah ah ah y?
 C/GG
e|-------3--------3---------3-|-----3---------3-----------|
B|---------3--------3---------|--------3---------3--------|
G|-----0-----0---------0------|---0------0---------0----0-|
D|----------------------------|---------------------------|
A|-2h3----------3---------3---|---------------------------|
E|----------------------------|-3-----------3---------3---|


So wa a ah ah ah y?
 C/GG
e|-------3--------3---------3-|-----3-----3-----3------|
B|---------3--------3---------|-----3-----3-----3------|
G|-----0-----0---------0------|----------------------0-|
D|----------------------------|---0-----0-----0----0---|
A|-2h3----------3---------3---|------------------------|
E|----------------------------|-3----------------------|


So wa a ah ah ah y?
 C/GEm7
e|-------3--------3---------3-|-----3---------3-----------|
B|-------3--3-----3--3--------|-----3--3------3--3--------|
G|-----0------0---------0-----|---0------0---------0----0-|
D|----------------------------|-----------------------2---|
A|-2h3----------3---------3---|-2-----------2-------------|
E|----------------------------|---------------------------|


If we can make the plans, can we just not find the time.
Dsus4 (strummed)
          e|--3-3-3-3--3-3--3-3--3-3-3-3-|
          B|--3-3-3-3--3-3--3-3--3-3-3-3-|
          G|--2-2-2-2--2-2--2-2--2-2-2-2-|
          D|--0-----0----0----0------0---|
          A|-----------------------------|
          E|-----------------------------|


--Break bewteen verses - strummed chords (0:43):

 GF#/GEm7Dsus4CG/CAm7D
 GF#/GEm7Dsus4CG/CAm7D

--Verse 2 - singing different tune, but same guitar part/chords as verse 1:
(1:01)

Don't get me wrong
I know it's hard and the good things never last
Yet there's no point waiting for the miracle to save your life
If you took the time to find what's real amongst the
baggage that you feel is holding you back
the demons cast aside.

--Chorus - same as before (1:19):

So why, so why, so why
If we can make the plans, can we just not find the time.

--Break - strummed chords (1:34):

 GF#/GEm7Dsus4CG/CAm7D
 GF#/GEm7Dsus4CG/CAm7D

--"Second chorus" (1:52):

 Dsus4DG
The  safe   way is not
 Dsus4DGCD
The  safe   way is not the way to live your life, your mind
 GF#/GEm7C/GC
is beautiful, don't let the daydreams die
 CD
 Don't let the daydreams die.

--First chorus again: twice (2:09). Ends on a G chord.

Please find the time for feedback/comments!

| / slide up
| \ slide down
| h hammer-on
| p pull-off
| ~ vibrato
| + harmonic
| x Mute note
===============================================================================


Am7 C C/G D Dsus4 Em7 F#/G G G/C
variations - click chord images
Transpose chords:
Tuning:
Cool service:
View: Size:
A  A  A
Rating:
Layout:
  • Currently 0/5 Stars.
  • 1
  • 2
  • 3
  • 4
  • 5
 
Accuracy:
  • Currently 0/5 Stars.
  • 1
  • 2
  • 3
  • 4
  • 5
 
click stars to rate
Chordie recommends:
Learn to play this song & others via video guitar lessons at JamPlay.com
Songbook:
Login to add this song to your songbook
Support the artist
Preview/buy this song
MSN Music
Why this non-profit ad?

 
login to add comments/video/corrections