Guitar Tabs, Chords and Lyrics


Anne Arbour  Get Up Kids

[G#m]B - [-]   [466444]x24442
C#m - x46654


Intro:

Guitar 1:
E--E/G#--A--F#m (x12)



Guitar 2:
e|-----4---4-------|
B|---5---5---5---5-|
G|-4-----------4---|
D|-----------------| (x24)
A|-----------------|
E|-----------------|



Guitar 3:
e|----7--5-4-------|
B|-5---------5h7p5-|
G|-----------------|
D|-----------------| (x12)
A|-----------------|
E|-----------------|



verse 1:
[E]  Soo[E/G#]ner or [A]later more[F#m]
[E]  These [B]words to [A]paper [F#m-B]pour
[E]  Com[E/G#]pose a[A]pologies[F#m]
[E]  To [B]bring you [A]back to me[F#m-B]


Interlude: A--G#m--C#m--B--A--G#m--E



Verse 2:
[E]  What [E/G#]words were [A]written for[F#m]
[E]  One [B]girl whose [A]pages tore[F#m-B]
[E]  I’ll [E/G#]bet you [A]never knew[F#m]
[E]  With a [B]letter [A]came a fool[F#m] for[B] you


Refrain:
[A]  She [G#m]says[C#m]  she [B]worked it out
[A]  This [G#m]room’s not [B]big enough for two
[A]  He [G#m]showe[C#m]d  she'd [B]work his [A]words out
G#m E(hold)
If she ever knew


Chorus:
[C#m]  How [A]do I [E]find her[G#m]
[A]Bearing my [F#m]heart in [E]hand
[C#m]  Last [A]winter[E] Anne [G#m]Arbour
A F#m E(hold)
Was all I had


Post Chorus:
[E]I still [B]wear your [E/G#]heart a[E]round my[A] throat
(I still wear your heart around my throat)
(Repeat twice)
A E-G#m-C#m-B (x3) <--the beat will switch from 4/4 to 3/4
With barely the air not to choke


Guitar 2:
e|-4h5p4-0-2-0---4h5p4-0-7---4h5p4-0-2-0-|
B|---------------------------------------|
G|---------------------------------------|
D|---------------------------------------|
A|---------------------------------------|
E|---------------------------------------|



A F#m E-G#m-C#m-B(x3)
Never, not ever again


Guitar 2:
e|-4h5p4-0-2-0---4h5p4-0-7---4h5p4-0-2-0-|
B|---------------------------------------|
G|---------------------------------------|
D|---------------------------------------|
A|---------------------------------------|
E|---------------------------------------|



A F#m A F#m G#m--C#m-B--A (x2)
Finally replaced every promise you’ve taken away
[G#m]Now that it’s over I’m [C#m]older and [B]colder this [A]way
[G#m]Finally replaced every [C#m]promise you’ve [B]taken a[A]way


Chorus: 3/4 beat
[C#m]  How do I [A]find her
[E]  from [G#m]bearing my heart
[A]  bearing my [F#m]heart in my [E]hand
[C#m]  Last [A]winter[E] Anne [G#m]Arbour
[A]  Was [F#m]all I [E]had

Important: The song above is NOT stored on the Chordie server. The original song is hosted at www.guitaretab.com. Chordie works as a search engine and provides on-the-fly formatting. Chordie does not index songs against artists'/composers' will. To remove this song please click here.

Text color:
Chord color:
Chord grids: 
Font size:    
Page size: 

A B C#m E E/G# F#m G#m
variations - click chord images

Login - add to songbook

Transpose chords

Tuning

Rating click stars to rate

Layout
Accuracy

SHARE PAGE  




You need to log in to post comments