""; ?> The One You Want by Get Up Kids - guitar chords, guitar tabs and lyrics - chordie

The One You Want

Get Up Kids

 F#m-244222
 E/G# - 476xxx

Intro: D-Em7-G (x2) D

Guitar 2:
e|-----5-----5-----|
B|-------7-----7---|
G|-7-7-----7-----7-|
D|-----------------| (x2)
A|-----------------|
E|-----------------|


Verse 1:
 Em7D/F#GA
  all poisoand thrills a handfull of pills       wai-ting a-round
 D/F#Em7D/F#GA
  nails cut to the quick yeah you broke what you fixed you're so  un---derground

Verse 2:
 GEm7GEm7
   what you waiting for? what you waiting for?
 GA
   its said and done

Chorus:
 GD/F#Em7D/F#
but its too late to turn your age around
 GBmA
 she's not the one you want

Post Chorus: D

Verse
 Em7D/F#GA
  one settles the score a trip to the floor      look what we've found
 Em7D/F#GA
  make sense of the scene keep a routine      stan-ding on sound

(Repeat Refrain and Chorus twice)

Bridge:
 F#mBmEm7A
How do you do it? with your back against the wall
 F#mBmGE/G#A
how do you ru--in all these promises promises and nothing else

(Repeat Refrain and Chorus twice)

 A
so tell me something that i didn't know

Outro: D-G (x8) ohh-ohh-ohh

Lead Part:
e|---------2----------2--5--2-|---------2----------2-------
B|-3h5p3h5----3h5p3h5---------|-3h5p3h5----3h5p3h5----3--0-
G|----------------------------|----------------------------
D|----------------------------|----------------------------
A|----------------------------|----------------------------
E|----------------------------|----------------------------

then
e|-------10-------10-------------10--------
B|-10-12----10-12----10-12-10-12----12--10-
G|-----------------------------------------
D|-----------------------------------------
A|-----------------------------------------
E|-----------------------------------------

then
e|-----5-2--0------2-0-------
B|-5-3---------5-3------3--5-
G|---------------------------
D|---------------------------
A|---------------------------
E|---------------------------

then
e|---------3-2-0---
B|-3-2-0---------3-
G|-------2---------
D|----------------- (x4)
A|-----------------
E|-----------------


End on A


A Bm D/F# E/G# Em7 F#m G
variations - click chord images
Transpose chords:
Tuning:
Cool service:
View: Size:
A  A  A
Rating:
Layout:
  • Currently 2.9/5 Stars.
  • 1
  • 2
  • 3
  • 4
  • 5
 
Accuracy:
  • Currently 2.8/5 Stars.
  • 1
  • 2
  • 3
  • 4
  • 5
 
click stars to rate
Chordie recommends:
Get acoustic guitar lessons and electric guitar lessons at JamPlay.com
Songbook:
Login to add this song to your songbook
Support the artist
Preview/buy this song
MSN Music
Why this non-profit ad?

 
login to add comments/video/corrections