Lion And The Lamb

Get Up Kids

 F#m-244222
 A -   x02220

Intro: Bm-D-G-- (x24)

Guitar 2:
e|----10----------------|
B|-------12-10----------|
G|-11----------11-11----|
D|-------------------12-| (x20)
A|----------------------|
E|----------------------|


Bass: will enter at 0:15
G|-12-12-12-12-11-11-11-11-9-9-9-9-7-7-6-4--|
D|---------------------------------------------------|
A|---------------------------------------------------| (x2)
E|---------------------------------------------------|

then

this one is tricky
G|---------|---------------7p6p4-------------|
D|-----5---|---4h5h7-5-4h5-------7-5-5-5-4-4-|
A|---5---5-|-5-------------------------------|
E|-3-------|---------------------------------|

x2

Verse 1:
 BmEm
   I've never been One for war
 BmEm
   Sand were sinkin in as thick as oil

Chorus:
 G
 Lion and the lamb
 DEm
there all gone there all gone
 G
slaughter the lion and the lamb
 DEm
for our home for our home

Post Chorus:
e|-----------------------|
B|-----------------------|
G|-----------------------|
D|-----------------------|
A|-----------------------|
E|-2-3-4-5-6-7--|


 Bm--Em

(Repeat Verse 1 and Chorus)

Bridge:
 BmG
   what have what have
 F#
what have become
 BmG
   what have what have
 F#
what have become of

Interlude: G-F#m-Em-D--A

(Repeat Chorus twice)

Ouro:
e|-----------------------|
B|-----------------------|
G|-----------------------|
D|-----------9-----------|
A|-----------9-----------|
E|-2-3-4-5-6-7--|				



Bm D Em F# F#m G
variations - click chord images
Transpose chords:
Tuning:
Cool service:
View: Size:
A  A  A
Rating:
Layout:
  • Currently 2/5 Stars.
  • 1
  • 2
  • 3
  • 4
  • 5
 
Accuracy:
  • Currently 3/5 Stars.
  • 1
  • 2
  • 3
  • 4
  • 5
 
click stars to rate
Chordie recommends:
Learn to play guitar with video-based, online guitar lessons at JamPlay.com
Songbook:
Login to add this song to your songbook
Support the artist
Preview/buy this song
MSN Music
Why this non-profit ad?

 
login to add comments/video/corrections