eToCache5 = ""; ?> Till I Hear It From You by Gin Blossoms - guitar chords, guitar tabs and lyrics - chordie

Till I Hear It From You

Gin Blossoms

 F133211
Intro:
 GEmBmD
e|----3-----2-0-----3-----2-0------2-----2-0---0----2----2-0---0---|
B|------3-------3-----3-------3------3-------3--------3------3-----|
G|--0-----0-------------0--------4-----4----------------2----------|
D|----------------2-------------------------------0----------------|  2X
A|-----------------------------------------------------------------|
E|-----------------------------------------------------------------|


Verse 1:
 GEmBm
 I didn't ask, you shouldn't have told me
 D
but first I'd laugh right now
 GEmBm
 I'm sinking in it fast, whatever you sold me
 D
well baby,

Chorus:
 C1D
 I don't want to take advice from fools
 C1D
 I just figured everything is cool
 GDEmC2
Until I hear it from you (hear it from you)

(Do verse 1 chords)
It gets hard, the memory's faded
who gets what they say
it's likely they're just jealous and jaded
well maybe

Repeat Chorus
 GDEmC2
Until I hear it from you (hear it from you)

 DG
 I can't let it get me up
 AmC
or break up my train of thought
 DG
as far as I know nothing's wrong
 FCG
 but still I hear it from you

e|--------3p2------------------------------|
B|------------3^--3/5-3--------------------|
G|----------------2/4-2-0-2-4-------7-7----|
D|------------------------------2/7--------|
A|---3-3-----------------------------------|
E|-3---------------------------------------|
e|-------7^-10-------------------------------------------------------------|
B|-----8-------10-8-10p8-8p7-7p5-5p3---------------------------------------|
G|-2/7--------------------------------------2-4/7-4-2-0-2-------2-4/7-9-11-|
D|------------------------------------2-4-5---------------2-4-5------------|
A|-------------------------------------------------------------------------|
E|-------------------------------------------------------------------------|


still thinking about not living without it
else I'd look it in
(do intro)
still talking about not stepping around it
well maybe

I don't want to take advice from fools
I just figured everything is cool
Until I hear it from you (hear it from you)
Until I hear it from you (hear it from you)
Until I hear it from you (hear it from you)
 GEmBmD
 'til I hear it from you, oh no         
‘til I hear it from you, oh no
'til I hear it from you (won't take advice from fools,
thinking everything is cool)
'til I hear it from you (won't take advice from fools,
thinking everything is cool)
'til I hear it from you


Am Bm C C2 D Em F G
variations - click chord images
Transpose chords:
Tuning:
Cool service:
View: Size:
A  A  A
Rating:
Layout:
  • Currently 3.2/5 Stars.
  • 1
  • 2
  • 3
  • 4
  • 5
 
Accuracy:
  • Currently 3/5 Stars.
  • 1
  • 2
  • 3
  • 4
  • 5
 
click stars to rate
Chordie recommends:
Get acoustic guitar lessons and electric guitar lessons at JamPlay.com
Songbook:
Login to add this song to your songbook
Support the artist
Preview/buy this song
MSN Music
Why this non-profit ad?

 
login to add comments/video/corrections

JustDeb (report comment to admin):
Capo 2 works with the recording.