Chordie logo
content loaded from cache

T For Texas  Tompall Glaser

|-------------------------------------------------------------|


|-------------------------------------------------------------|


|-------------2-------------2-------------2-------------2-----|


|---------2h4-----------2h4-----------2h4-----------2h4-------|


|-0-0h3-4-------0-0h3-4-------0-0h3-4-------0-0h3-4-----------|


|-------------------------------------------------------------|



|-------------------------3-1-1-------------------------------|


|-------------3---------3------3------------------------------|


|---------2h4--------------------------------2-------------2--|


|-0-0h3-4-------0-0h3-4------------------2h4-----------2h4----|


|--------------------------------0-0h3-4-------0-0h3-4--------|


|-------------------------------------------------------------|



|-------------------------------------------------------------|


|---------------------------3---------------------------------|


|-----------------------2h4----------------2-------------2----|


|-------------2-0-0h3-4----------------2h4-----------2h4------|


|---------2h4------------------0-0h3-4-------0-0h3-4----------|


|-0-0h3-4-----------------------------------------------------|




|-------------------------------------------------------------|


|-------------------------------------------------------------|


|----------2-0--------------------2---------------------------|


|--------2----2---------------2h4-----------------------------|


|0-0h3-4--------3-0----0-0h3-4--------------------------------|


|-------------------------------------------------------------|






[E]T for Texas, T for Tennessee
[A]T for Texas, T for Tennes[E]see
[B7]T for Thelma, that gal that made a wreck out of [E]me.

Yodeling E B7 E

[E]If you don't want me mama, you sure don't have to stall
[A]If you don't want me mama, you sure don't have to s[E]tall
[B7]Cause I can get more women than a passenger train can [E]haul.

Yodeling E B7 E

[E]I'm gonna buy me a pistol just as long as I am tall
[A]I'm gonna buy me a pistol just as long as I am [E]tall
[B7]I'm gonna shoot poor Thelma, just to see her jump and [E]fall.

Yodeling E B7 E

[E]Well, I'm going where the water drinks like cherry wine
[A]I'm going where the water drinks like cherry [E]wine
[B7]Cause this Georgia water tastes like turp[E]entine.

Yodeling E B7 E
[E]I'm gonna buy me a shotgun with a long shiny barrel
[A]I'm gonna buy me a shotgun with a long shiny [E]barrel
[B7]I'm gonna shoot that rounder that stole away my [E]gal.

Yodeling E B7 E

[E]I'd rather drink muddy water and sleep in a hollow log
[A]I'd rather drink muddy water and sleep in a hollow [E]log
[B7]Than to be here in Atlanta, and get treated like a dirty [E]dog
Have fun

Important: The song above is NOT stored on the Chordie server. The original song is hosted at www.guitaretab.com. Chordie works as a search engine and provides on-the-fly formatting. Chordie does not index songs against artists/composers will. To remove this song please click here.

A B7 E
variations - click chord images

Transpose chords

Tuning

Rating click stars to rate

Layout
Accuracy

SHARE PAGE  

You need to log in to post comments