Chordie logo


Kimi Ga Iru   Glay



Japanese Rock Band, http://www.glay.com

Kimi Ga Iru
by Glay

Tabber - Jake f**king Chen


Loved the song though I don't know a word of it. 

Questions & Comments to darc_blade@hotmail.com


Intro

E|-3--3--0-0-0--------0--------0------0--3-|
B|-3--3--3-1-0--------0--------0------0--3-|
G|-0--0--0-0-0--2-0---0--2-0-2-2--2---0--0-|
D|-2--2--2-2-2--------2------0-0-4--2-2--2-|
A|-2--3--3-3-3------3-3-------------3-3--3-|
E|-0---------------------------------------|

Verse

E|------0--|------0--|------0--|-0-0--0--|
B|-3-3---3-|-3-3---3-|-3-3---3-|-3-0---0-|
G|-0-0-0---|-0-0-0---|-0-0-0---|-2-2-2---|
D|-2-2-----|-0-0-----|-2-2-----|-0-2-----|
A|-2-3-----|-2-x-----|-2-3-----|---0-----|
E|-0-------|-3-2-----|-0-0-----|---------|

E|-----0-|-0-0---0-|--------|-0--0----|
B|-3-3-3-|-3-0-----|-0-0----|-0---3---|
G|-0-0---|-2-2--2--|-0---0--|-2----2--|
D|-2-2---|-0-2-2---|-2--2-2-|-0-----0-|
A|-2-3---|---0-----|-3------|---------|
E|-0-----|---------|--------|---------|

Pre-Chorus

E|-0--0----|-0--0--0-|
B|-3--0--3-|-3--0--3-|
G|-0--0--0-|-0--0--2-|
D|-2--2--0-|-2--2--0-|
A|-3--3--2-|-3--3----|
E|-------3-|---------|

Chorus  

E|-3--2-3--0--0--3--0-|
B|-3--3-3--3--3--3--3-|
G|-0--2-2--0--2--0--2-|
D|-0--0-0--2--0--2--0-|
A|-2-------2--x--3----|
E|-3-------0--2-------| x 3

This last part might be wrong...

E|-0--0--0--0--0-|
B|-0--0--0--0--0-|
G|-x--x--x--x--x-|
D|-9--7--5--4--2-|
A|-10-9--7--5--3-|
E|---------------|

"Everlasting memory..."

E|-3-3--0-|
B|-3-3--3-|
G|-0-0--2-|
D|-2-2--0-|
A|-3-3----|
E|--------|

Ending

E|-3--3--3-0-0--------0-------0-----|
B|-3--3--1-1-0--------0-------0-----|
G|-0--0--0-0-0--2-0-----0-----2--2--|
D|-2--2--2-2-2------2--2-2--0-0-0-0-|
A|-2--3--3-3-3------3---------------|
E|-0--------------------------------| x 3

E|-3-|
B|-3-|
G|-0-|
D|-2-|
A|-3-|


Important: The song above is NOT stored on the Chordie server. The original song is hosted at www.guitaretab.com. Chordie works as a search engine and provides on-the-fly formatting. Chordie does not index songs against artists/composers will. To remove this song please click here.

This song is displayed as text-only. Transposing and tuning is only available for chordpro-songs.

Login - add to songbook

Rating click stars to rate

Layout
Accuracy

SHARE PAGE  




You need to log in to post comments