Mr Sandman

Gob

 AAbBDDbEFGb
e------------------------
B------------------------
G-------4--7--6----------
D-7--6--4--7--6--2--3--4-
A-7--6--2--5--4--2--3--4-
E-5--4-----------0--1--2-


Palm Mute all Chords Except ones with*

e|------0-4-2-0---------2-5-4--------0-4-2-0---------2-5-4--|
B|----2---------2-----3------------2---------2-----3--------|
G|--2-------------2-4------------2-------------2-4----------|
D|----------------------------2-----------------------------|
A|----------------------------------------------------------|
E|----------------------------------------------------------|


 AAb
Mr Sandman Bring me a dream
 DbGb
 Make him the Cutest that I've ever seen
 BE
 Give him two lips like roses and clover
A F* E*
Then tell him that his lonesome nights are over

 AAb
 Sandman ... im so alone
 DbGb
 Dont have no body to call my own
 BD
 So Please Turn on your magic Beans
B* D* A*
Mr sandman bring me a dream

e|------0-4-2-0---------2-5-4--------0-4-2-0---------2-5-4--|
B|----2---------2-----3------------2---------2-----3--------|
G|--2-------------2-4------------2-------------2-4----------|
D|----------------------------2-----------------------------|
A|----------------------------------------------------------|
E|----------------------------------------------------------|


 AAb
Mr Sandman Bring me a dream
 DbGb
 Make him the Cutest that I've ever seen
 BE
 Give Him the word that Im not a Rover
A F* E*
Then tell him that his lonesome nights are over

 AAb
 Sandman ... im so alone
 DbGb
 Dont have no body to call my own
 BD
 So Please Turn on your magic Beans
B* D* A*
Mr sandman bring me a dream

e|-------------9-7-------------2-5-4------2-5-4-2-0---------2-0--|
B|--------7-10-----10-7------3----------3-----------3-----3------|
G|--4-6-7---------------7--4----------4---------------2-4--------|
D|---------------------------------------------------------------|
A|---------------------------------------------------------------|
E|---------------------------------------------------------------|


*No Palm Mute For Rest*

 AAb
 Enter sandman ah-yeah Bring me a knife
 DbGb
 with a pair of eyes with a frightening gleem
 BE
 Give him a Beard and Empty Beer Cans
A-----No Guitar----------F       E

And long wavy hair like Pat the Wolfman

 AAb
 Mr Sandman  Someone to Dread
 DbGb
 Someone who's Creepy and After my head
 BD
 So Please Turn on your magic Beans
 BDBD
 Mr Sandman Bring us, please please bring us
 BDA
 Mr Sandman Bring Us a Dream

*Start playing The second part of the intro to Enter Sandman*
*The End*


A Ab B D Db E F Gb
variations - click chord images
Transpose chords:
Tuning:
Cool service:
View: Size:
A  A  A
Rating:
Layout:
  • Currently 2.5/5 Stars.
  • 1
  • 2
  • 3
  • 4
  • 5
 
Accuracy:
  • Currently 3.1/5 Stars.
  • 1
  • 2
  • 3
  • 4
  • 5
 
click stars to rate
Chordie recommends:
Learn how to play guitar at JamPlay.com
Songbook:
Login to add this song to your songbook
Support the artist
Preview/buy this song
MSN Music
Why this non-profit ad?

 
login to add comments/video/corrections