Chordie logo

60 Revolutions  Gogol Bordello

e|--------------------------------------------------------------|


B|--------------------------------------------------------------|


G|-14---17-14-13---16---13-13-16-13-14------14-14-17-14-13-16---|


D|-------------------------------------14-----------------------|


A|--------------------------------------------------------------|


E|--------------------------------------------------------------|





e|--------------------------------------------------------------|


B|--------------------------------------------------------------|


G|-2--------------------------------2-------2-------------------|


D|-2----------2---------2-----------2-------2------------2------|


A|-0----------2---------2-----------0-------0------------2------|


E|------------0---------0--------------------------------0------|







e|----------------------------------|


B|----------------------12-13-12----|


G|-------12-13-14-13-14----------14-|


D|-14-13----------------------------|


A|----------------------------------|


E|----------------------------------|


[A5]Sixty revolutions [E5]per minute [E5]
This is my regular [A5]speed
[A5]So how do you want me to [E5]live with it? [E5]

How do you want me to live with it?

Chorus:

[A5]Without ringing [E5]all alarms
[E5]Without overthrowing [A5]czars
[A5]Without emptying the [E5]bars
[E5]Without screwing with your charts

Then another verse, then the bridge

e|----------------------------|
B|----------------------------|
G|-14-12---7-9---10-9-7-4-5---|
D|----------------------------|
A|-12-10---5-7---8—7-5-2-3----|
E|----------------------------|


Then more stuff. Throw in the intro riff liberally. Bass follows the chords, which
pretty constant through the whole song.

If you want to add a solo, use this scale.

e|-----------------------------5-|
B|-------------------------6-9---|
G|-------------------5-7-9-------|
D|-------------6-7-9-------------|
A|-------5-7-8-------------------|
E|-5-7-8-------------------------|


That’s about it.

Important: The song above is NOT stored on the Chordie server. The original song is hosted at www.guitaretab.com. Chordie works as a search engine and provides on-the-fly formatting. Chordie does not index songs against artists/composers will. To remove this song please click here.

A5 E5
variations - click chord images

Login - add to songbook

Transpose chords

Tuning

Rating click stars to rate

Layout
Accuracy

SHARE PAGE  

You need to log in to post comments