Chordie logo

Paradise In Distress  Golden Earring

    d||------------------------------------------------------------||


    A||*-----------1----------------------------------------------*||


    F||---------0-----0--------------------------------------------||


    C||---0--3-----------3--0---0----------------------------------||


    G||*----------------------------------------------------------*||


    D||------------------------------------------------------------||




    d||-------------------------3---0--3--0--3---------------------||


    A||*------------------------2---1--2--1--2--------------------*||


    F||-------------------------3---0--3--0--3---------------------||


    C||------------------------------------------------------------||


    G||*----------------------------------------------------------*||


    D||------------------------------------------------------------||



[C]Devil just bought a [F]brand new
[C]Devil just bought a [F]brand new
[C]Devil just bought a [F]brand new
[Bb]Penthouse in [C]heaven
There goes the old [F]neighbourhood
[C]There goes the old [F]neighbourhood
[C]There goes the good old [F]neighbourhood
On a [Eb]one way trip to [C]hell! Yeah!
(shake you sinner!, shake you sinner!))
(play intro 4x)
[C]Jesus won't drive [Bb]nothing but a shiny white Mer[C]cedes
And all the angels gotta [Bb]settle for [F]second hand oldsmo[C]biles
The [G]virgin Mary [F]loses faith and [Eb]starts a chain-re[D]action
The [Ab]Lord just stands there [Eb]weepin' bitter [Bb]tears in the [C]rain
(play intro 2x)
Ain't that a shame?
(shake you sinner!, shake you sinner!))
[C]Almost if the [Bb]bad guys got the good guys on the [C]run
All in the line of [Bb]expectation in the [F]eyes of the evil [C]one
Like a [G]mad bull chargin' [F]through a closet
of [Eb]porcelain 'made in [D]China'
[Ab]Saddlin' up the [Eb]righteous with [Bb]nightmares full of [C]trauma!
Chorus
[C]Devil just bought a [F]brand new
[C]Devil just bought a [F]brand new
[C]Devil just bought a [F]brand new
[Bb]Penthouse in [C]heaven
There goes the old [F]neighbourhood
[C]There goes the old [F]neighbourhood
[C]There goes the good old [F]neighbourhood
[Eb]Moving on down to [C]hell!
Bridge:
There's [Eb]no one here
There's [D]nothing left
[Db]No one here to kiss or [C]bless
This [Eb]damp and dark un[D]holy mess
You could [Db]say: Paradise in Dis[C]tress!
(play intro 2x)
(shake you sinner!, shake you sinner!))
[C]Behind the clouds there's a [Bb]silver line
The sun just can't stop [C]waiting
To put a shine on a [Bb]clear blue sky
And kill the [F]pessimist in [C]me
Meanwhile...
There's [Eb]no one here
There's [D]nothing left
[Db]No one here to kiss or [C]bless
This [Eb]damp and dark un[D]holy mess
You could [Db]say: Paradise in Dis[C]tress!
Chorus (repeat several times)
[C]Devil just bought a [F]brand new
[C]Devil just bought a [F]brand new
[C]Devil just bought a [F]brand new
[Bb]Penthouse in [C]heaven
There goes the good old [F]neighbourhood
[C]There goes the good old [F]neighbourhood
[C]There goes the good old [F]neighbourhood
[Eb]On a one way [F]trip to [C]hell!
[C]Devil just bought a [F]brand new
[C]Devil just bought a [F]brand new
[C]Devil just bought a [F]brand new
[Bb]Penthouse in [C]heaven

Important: The song above is NOT stored on the Chordie server. The original song is hosted at www.guitaretab.com. Chordie works as a search engine and provides on-the-fly formatting. Chordie does not index songs against artists/composers will. To remove this song please click here.

Ab Bb C D Db Eb F G
variations - click chord images

Login - add to songbook

Transpose chords

Tuning

Rating click stars to rate

Layout
Accuracy

SHARE PAGE  

You need to log in to post comments