""; ?> When The Lady Smiles by Golden Earring - guitar chords, guitar tabs and lyrics - chordie

When The Lady Smiles

Golden Earring

 B4799977
 E*      076xxx
 F#4244422
 E!      022100 (drum hit)
E4 022200
G#m! 466444 (drum hit)
 G#4466644
 C#      x46664
C#m x46654
 A577655
 B/Bb    69xxxx

(Intro)
Riff1 (2x)

Riff1
e-0--0--0--0--0--0--0--0--0--0--0--0--0--0--0--0--0--0--0--0--0--0--0--0--0--0--|
B-0--0--0--0--0--0--0--0--0--0--0--0--0--0--0--0--0--0--0--0--0--0--0--0--0--0--|
G-11-11-11-11-11-11-11-9--9--9--9--9--9--9--7--7--7--7--7--7--7--7--7--7--7--7--|
D-9--9--9--9--9--9--9--7--7--7--7--7--7--7--5--5--5--5--5--5--5--5--5--5--5--5--|
A-------------------------------------------------------------------------------|
E-------------------------------------------------------------------------------|


Riff2a
e---------------------------|
B---------------------------|
G-------8h9-----11----9-8-9-|
D-----9---------------------|
A---9---------9-----9-------|
E-7---------7-----7----7-7--|

 BB4B5B4BB4

Riff2b
e-------------------------------|
B-------------------------------|
G-------8h9-----11-----9----8-9-|
D-----9------------------11-----|
A---9---------9------9----------|
E-7---------7------7------------|

 BB4B5B4B2BB4
Riff2c
e---------------------------|
B---------------------------|
G-------3-3-4-4--6-4-3---3--|
D-----4----------------6----|
A---4-------4---------------|
E-2--------2--2----------2--|

 F#F#4F#
B B E* F#
When the lady smiles___ you know it drives me wild__
B E* F#
Her lips are warm__ and resourceful__
B E* F#
When her fingertips go drawing__ circles in the night
B E* F#
And the mood is soft and sensual_ hhhheeyy
 BF#
 and I love it,            yeah, I love_ it
B E* F#
It's the answer_ to all my dreams everytime it feels like

(Bridge)
E! E4 E4 E E! E4 E4 E
The earth is shaking, it doesn't matter
G#m! G#4 G#4 G#m G#m! G#4 G#4 G#m
A glass is falling, I hear it shatter
E! E4 E4 E E! E4 E4 E
Maybe it's raining, faster and faster
G#m! G#4 G#4 G#m
Shadow dancing

 G#mF#
 Together whoo-oh, I___, I'm betting on the game__ of_ love__
 G#mC#
Whoo-oh-oh-oh, I___, I'm betting that the love is gonna come out
 C#mB
When the walls no longer shout      back at me and I'm feelin' proud

 C#mG#mC#mE
When the la__dy_ smiles__, she holds_ me in her hand__
 BC#mG#mF#F#sus4F#
As a matter of fact, she can always let me down__           
 G#5B5C#mG#mC#mE
But when the la__dy__ smiles, I can't resist her call__,
 BAG#m
As a matter of fact, I don't resist at all__
 EF#
'Cause I'm walkin' on clouds,    and she's  lea__ding the way_

B B E* F#
My friends tell me: "she's the beast inside__ your paradise_"
B E* F#
I guess you've heard it all__ before_
B E* F#
A fallen angel that_ has_ got you hypnotized
B E* F#
And that always__ needs_ some_ more_ hhhuh
 BF#
 and I love it,                yeah, I love it
B E* F#
She's done nothing to mislead me__ 'Cause everytime we meet

(Bridge)
E! E4 E4 E E! E4 E4 E
The earth is shaking, it doesn't matter
G#m! G#4 G#4 G#m G#m! G#4 G#4 G#m
A glass is falling, I hear it shatter
E! E4 E4 E E! E4 E4 E
Maybe it's raining, faster and faster
G#m! G#4 G#4 G#m
Shadow dancing
 G#mF#
Together whoo-oh, I___, I'm betting on the game__ of_ love__
 G#mC#
Whoo-oh-oh-oh, I___, I'm betting that the love is gonna come out
 C#mB
When the walls no longer shout      back at me and I'm feelin' proud

 C#mG#mC#mE
When the la__dy_ smiles__, she holds_ me in her hand__
 BC#mG#mF#F#sus4F#
As a matter of fact, she can always let me down__           
 C#mG#mC#mE
But when the la__dy__ smiles, I can't resist her call__,
 BAG#m
As a matter of fact, I don't resist at all__
 EF#
'Cause I'm walkin' on clouds,    and she's  lea__ding____

Riff3 'oh noo'
e------7-7-7-7--7-7-|--------------------------|
B------9-9-9-7--9-9-|-----11111111111111119-9--|
G------9-9-9-9--9-9-|-----11111111111111111111-|
D------9-9-9-9--9-9-|-----11111111111111111111-|
A------7-7-7-7--7-7-|-----9-9-9-9-9-9-9-9-9-9--|
E-------------------|--------------------------|

 EF#
(Solo)
 EF#////////
 oh nooo      oh noo      oh no___
 EF#
 ___________   
 B/BbG#m
Solo
e---------------------------|
B---------------------------|
G---------------------------|
D------------------1--------|
A-----2~~~-------2----4~~~--|
E-2-4--------2-4------------|

 EF#
e------------------------|
B------------------------|
G------------------------|
D------------------------|
A-2~~~-------2---2-1~~~--|
E--------2-4---4---------|

 BBb
e----------------------------------|
B----------------------------------|
G----------------------------------|
D-----------------------1--1-------|
A-----2-4~~~--------2-4-------2~~~-|
E-2-4-----------2-4----------------|

 F#E
e------------------------------------|
B------------------------------------|
G------------------------------------|
D---------1--1--------1--------------|
A-----2-4-------4~~~----4-2---2~~~~--|
E-2-4-----------------------4--------|

 F#E

e-----------------------------------|
B-----------------------------------|
G-----------------------------------|
D-----------------------------------|
A---2-2---2--2--1-----4b6-2---2~~~--|
E-4-----4-------------------4-------|

 F#B
e-----------------------------------------|
B-----------------------------------------|
G-----------------------------------------|
D----------1--1---------------------------|
A------2-4------4~~~~--4b6-2---2--2-------|
E----4-----------------------4------4-----|

 B/BbG#m
e-------------------------------------------------|
B-------------------------------------------------|
G-------------------------------------------------|
D-------------------------------------------------|
A-----2-----------2-------2------------------2----|
E-2-4---4-2--2--4-----2-4---4-0~~~-------0-2---4--|

 F#E
e-------------------------------------|
B-------------------------------------|
G-------------------------------------|
D-1--1-------1------------------------|
A-------4------4-2---2-2-----2-22-2---|
E------------------4-------4-----4----|

 F#B
e--------------------------------------------------------------------22-|
B--------------------------------------------------------------2/4------|
G------1~---4~--1h4p1h4p1~-1-4--1-44-1---1-44-1---1-44-1--4--1----------|
D-4~--------------------------------------------------------------------|
A-----------------------------------------------------------------------|
E-----------------------------------------------------------------------|

 B/BbG#m

A B B2 B4 B5 Bb C# C#m E F# F#4 F#sus4 G#4 G#5 G#m
variations - click chord images
Transpose chords:
Tuning:
Cool service:
View: Size:
A  A  A
Rating:
Layout:
  • Currently 3.6/5 Stars.
  • 1
  • 2
  • 3
  • 4
  • 5
 
Accuracy:
  • Currently 2.3/5 Stars.
  • 1
  • 2
  • 3
  • 4
  • 5
 
click stars to rate
Chordie recommends:
Get acoustic guitar lessons and electric guitar lessons at JamPlay.com
Songbook:
Login to add this song to your songbook
Support the artist
Preview/buy this song
MSN Music
Why this non-profit ad?

 
login to add comments/video/corrections