Albino Moon

Golden Earring

e |-------------------------------------------| Play 3 Times

B |-------------------------------------------|
G |-------------------------------------------|
D |---------------------7---------------------|
A |--------------5--7/9----7--7-5-7-8-7-5-----|
E |---5/7--7-5-7--------------------------7---|
E |-----7-----7-----5-------------------------| Play after the 3rd time
B |--7-----7-----7-----5--5--3_5--6--5--------|
G |-------------------------------------4-----|
D |-------------------------------------------|
A |-------------------------------------------|
E |-------------------------------------------|

 B5A5E5A5B5
 You look real good in your blue jeans and a pink sweater

 B5A5A5EmEmEm
 But in a cocktail dress I guess you look even better

 B5A5E5A5B5
 I got the photographs and the memories lined up on the table

 B5A5A5A5
 But you're gone with the wind and I wish I was dead

 EmEm
 Just like Clark Gable....

Bridge

 A5A5A5A5
 The sun goes down for a lonely fool

 E5B5
 Like darkness in the temple of doom

 F#mF#m
 I need a guiding light. Tell me...

 A5
 What am I supposed to do?

Chorus

 B5D5
 Albino Moon where you been tonight?

 E5B5
 Hidin' behind a cloud Albino Moon

 B5D5
 Albino Moon what's it all about?

 E5B5
 Hidin' behind a cloud Albino Moon...

 EmF#m
 Am I blind or am I right?

 EmF#m
 Pour your light into my room

 EmF#mAm
 Make my baby find her way back home

Real soon...Albino Moon

(Intro riff)

Verse

 B5A5
 Put your red lips on my day dream

 A5B5
 Imagine we're together

 B5A5
 In the back seat of my car

 A5Em
 On the shiny white leather..

 B5A5E5A5B5
 I got the photographs and the memories lined up on the table

 B5A5A5A5
 But you're gone with the wind and I wish I was dead

 Em
 Just like Clark Gable....

Bridge

 A5
 The sun goes down for a lonely fool

 E5B5
 Like darkness in the temple of doom

 F#mF#m
 I need a guiding light. Tell me...

 A5
 What am I supposed to do?

Chorus

 B5D5
 Albino Moon where you been tonight?

 E5B5
 Hidin' behind a cloud Albino Moon

 B5D5
 Albino Moon what's it all about?

 E5B5
 Hidin' behind a cloud Albino Moon...

 EmF#m
 Am I blind or am I right?

 EmF#m
 Pour your light into my room

 EmF#mAm
 Make my baby find her way back home

 Em
 Real soon...Albino Moon

Intro riff


A5 Am B5 D5 E5 Em F#m
variations - click chord images
Transpose chords:
Tuning:
Cool service:
View: Size:
A  A  A
Rating:
Layout:
  • Currently 2.4/5 Stars.
  • 1
  • 2
  • 3
  • 4
  • 5
 
Accuracy:
  • Currently 2.4/5 Stars.
  • 1
  • 2
  • 3
  • 4
  • 5
 
click stars to rate
Chordie recommends:
Check out JamPlay.com for online video guitar lessons
Songbook:
Login to add this song to your songbook
Support the artist
Preview/buy this song
MSN Music
Why this non-profit ad?

 
login to add comments/video/corrections