Guitar Tabs, Chords and Lyrics


Mable  Goldfinger

Intro   E|-3-3-5-7--3-3-5-7--3-3-5-7-8-7-5-7------------------------------|



        B|-3-3-5-7--3-3-5-7--3-3-5-7-8-7-5-7------------------------------|


        G|----------------------------------------------------------------|


        D|----------------------------------------------------------------|


        A|----------------------------------------------------------------|


        E|----------------------------------------------------------------|


Bass    G|----------------------------------------------------------------|


Part    D|----------------------------------------------------------------|


after   A|-------------------------3-3-3-3-3-3-3-3-3-3-3-3----------------|


intro   E|-3-3-3-3-3-3-0-0-0-0-0-0----------------------------------------|

            [G]  [G]  [G]  [G]  [G]  [G]  [E]  [E]  [E]  [E]  [E]  [E]  [C]  [C]  [C]  [C]  [C]  [C]  [C]  [C]  [C]  [C]  [C]  [C]                       
        E|----------------------------------------------------------------|
        B|----------------------------------------------------------------|
        G|--------------------------5-5-5-5-5-5-5-5-5-5-5-5---------------|
        D|--5-5-5-5-5-5-2-2-2-2-2-2-5-5-5-5-5-5-5-5-5-5-5-5---------------|
        A|--5-5-5-5-5-5-2-2-2-2-2-2-3-3-3-3-3-3-3-3-3-3-3-3---------------|
        E|--3-3-3-3-3-3-0-0-0-0-0-0---------------------------------------|

Her eyes were hazel her name was mable I kissed her once and now
I'm able
D x x C x x B A
        E|-3-5-3-5-3-5-3-5|-----------------------------------------------|
        B|-3-5-3-5-3-5-3-5|-----------------------------------------------|
        G|----------------|7-x-x-5-x-x-4-2--------------------------------|
        D|----------------|7-x-x-5-x-x-4-2--------------------------------|
        A|----------------|5-x-x-3-x-x-2-0--------------------------------|
        E|----------------|-----------------------------------------------|

To walk a mile |She makes me wanna kiss all the
crack a smile |
        E|----------------------------------------------------------------|
        B|----------------------------------------------------------------|
        G|-----7-7-----4-4-5-5-5-5-7-7-7-7--------------------------------|
        D|-5-5-7-7-2-2-4-4-5-5-5-5-7-7-7-7--------------------------------|
        A|-5-5-5-5-2-2-2-2-3-3-3-3-5-5-5-5--------------------------------|
        E|-3-3-----0-0----------------------------------------------------|

Babies hug the Puppy dogs she makes me feel like my mom
        E|----------------------------------------------------------------|
        B|----------------------------------------------------------------|
        G|-----7-7-----4-4-5-5-5-5-7-7------------------------------------|
        D|-5-5-7-7-2-2-4-4-5-5-5-5-7-7------------------------------------|
        A|-5-5-5-5-2-2-2-2-3-3-3-3-5-5------------------------------------|
        E|-3-3-----0-0----------------------------------------------------|

Smell the flowers and plant a tree I got to say that Mable she's
the Bomb
That's about it there are a few other parts but there just the same except
for the second verse is Palm muted and the slow part is just the verse
chords
picked then there is a part where you speed it up.
Well I hope you enjoy, hopefully this helps you. zane@gbd.com
http://members.tripod.com/~wumb/mix.html

Important: The song above is NOT stored on the Chordie server. The original song is hosted at www.guitaretab.com. Chordie works as a search engine and provides on-the-fly formatting. Chordie does not index songs against artists'/composers' will. To remove this song please click here.

Text color:
Chord color:
Chord grids: 
Font size:    
Page size: 

C E G
variations - click chord images

Login - add to songbook

Transpose chords

Tuning

Rating click stars to rate

Layout
Accuracy

SHARE PAGE  




You need to log in to post comments