Chordie logo


Fill My Cup   Gomez



This is "Fill My Cup" by Gomez on the album Liquid Skin. the song is mostly in 6/8.
are piano parts in the background and small lead guitar licks which i have missed out here,
everything else is here, and this is exactly how to play it. leave comments,and 
and enjoy playing this great song!

intro (in 3/4)
e----------|----------|----------|--------|
B----------|----------|----------|--------|
G----------|----------|----------|--------|
D----------|----------|----------|--------|
A----------|----------|----------|--------|
E-1h3-1-3-3|-1h3-1-3-3|-1h3-1-3-1|-3------|

main riff (guitar 1) (6/8) (beings at 0:04)
e---------------------|
B---------------------|
G---------------------|
D-----3-(3)/5--3------|
A---2-------------5---|
E-3-------------------|

main riff (guitar 2)
e---------------------|
B-----6-(6)/8--6------|
G---4-------------7---|
D-5-------------------|
A---------------------|
E---------------------|

(play this riff 12 times,then into verse 1 where it the main riff is played through the
verse,(32 times!) there are lead guitar and piano bits here and there, which can be improvised)

Chorus (begins at 1:34)

  don't  you    worry   sweet
e--------------|--------------|
B--------------|--------------|
G-3-3-3--3-3-3-|-3-3-3--3-3-3-|
D-3-3-3--3-3-3-|-3-3-3--3-3-3-|
A-1-1-1--1-1-1-|-1-1-1--1-1-1-|
E--------------|--------------|

 darling       it's gonna be al-right
e--------------|--------------|------|
B--------------|--------------|------|
G-3-3-3--3-3-3-|-3-3-3--3-3-3-|-4----|
D-3-3-3--3-3-3-|-3-3-3--3-3-3-|-5----|
A-1-1-1--1-1-1-|-1-1-1--1-1-1-|-5----|
E--------------|--------------|-3----|

 seems   that   i've    been
e--------------|--------------|
B--------------|--------------|
G-3-3-3--3-3-3-|-3-3-3--3-3-3-|
D-3-3-3--3-3-3-|-3-3-3--3-3-3-|
A-1-1-1--1-1-1-|-1-1-1--1-1-1-|
E--------------|--------------|

 sleeping       been sleeping all my
e--------------|-------------------|
B--------------|-------------------|
G-5-5-5--5-5-5-|-5-5-5--5-5-5------|
D-5-5-5--5-5-5-|-5-5-5--5-5-5------|
A-3-3-3--3-3-3-|-3-3-3--3-3-3------|
E--------------|-------------------|

 li-    -fe           sleeping all my-
e------|------|------|----------------|
B------|------|------|----------------|
G-4----|-4----|-4----|-4--------------|
D-5----|-5----|-5----|-5--------------|
A-5----|-5----|-5----|-5--------------|
E-3----|-3----|-3----|-3--------------|

 li-    -fe           sleeping all my-
e------|------|------|----------------|
B------|------|------|----------------|
G-4----|-4----|-4----|-4--------------|
D-5----|-5----|-5----|-5--------------|
A-5----|-5----|-5----|-5--------------|
E-3----|-3----|-3----|-3--------------|

 Bridge (begins at 2:16)

 life   I      sleep alone    on    my      very  own
e------------|--------------|-------------|--------------|
B-6-6-6-5-5-5|-/7-7-7-7-7-7-|-6-6-6-5-5-5-|-/7-7-7-7-7-7-|
G-4-4-4-3-3-3|-/7-7-7-7-7-7-|-4-4-4-3-3-3-|-/7-7-7-7-7-7-|
D------------|--------------|-------------|--------------|
A------------|--------------|-------------|--------------|
E------------|--------------|-------------|--------------|

  sit-  ting   sick at home
e------------|--------------|
B-6-6-6-5-5-5|-/7-7-7-7-7-7-|
G-4-4-4-3-3-3|-/7-7-7-7-7-7-|
D------------|--------------|
A------------|--------------|
E------------|--------------|

main riff x4 then into verse 2 for another 16 repeitions of the main riff (the riff is
obvious in this verse as the song has become louder)

repeat chorus (at 3:10)

at 3:34 (end of chorus/second bridge) everything stops and the intro is played again,
alone, then another 3 times with all instruments

(last time)
                  been sleeping   all my-
e----------|----------|----------|--------|
B----------|----------|----------|--------|
G----------|----------|----------|--------|
D----------|----------|----------|--------|
A----------|----------|----------|--------|
E-1h3-1-3-3|-1h3-1-3-3|-1h3-1-3-1|-3------|

third bridge (3:50)

 life                  picking up girls and di- seases
e-0--------|-4--------|-5----------------------|-7------|
B-0--------|-5--------|-5----------------------|-7------|
G-1--------|-6--------|-6----------------------|-8------|
D-2--------|-6--------|-7----------------------|-9------|
A-2--------|-4--------|-7----------------------|-9------|
E-0--------|----------|-5----------------------|-7------|

that burn me  up         burn  me
e-0---------|-4--------|-------------|
B-0---------|-5--------|-------------|
G-1---------|-6--------|-5-5-5-2-2-2-|
D-2---------|-6--------|-6-6-6-3-3-3-|
A-2---------|-4--------|-6-6-6-3-3-3-|
E-0---------|----------|-4-4-4-1-1-1-|



Important: The song above is NOT stored on the Chordie server. The original song is hosted at www.guitaretab.com. Chordie works as a search engine and provides on-the-fly formatting. Chordie does not index songs against artists/composers will. To remove this song please click here.

This song is displayed as text-only. Transposing and tuning is only available for chordpro-songs.

Login - add to songbook

Rating click stars to rate

Layout
Accuracy

SHARE PAGE  




You need to log in to post comments