Bullet Proof

Goo Goo Dolls

E|---------|
B|-7--8--3-|
G|-0--0--0-|
D|-x--x--2-|
A|-7--7--3-|
D|---------|


Play this at the end of the intro

E|-----------|
B|-----------|
G|-----------|
D|-----------|

A|-9/10/9----|
D|--------12-|


Verse - Strum the chord once, then let it ring
Same applies for the second verse
Em Cadd9 C(?)
E|--0--|--0--|--0--|
B|--0--|--0--|--0--|
G|--0--|--0--|--0--|
D|--2--|--2--|--3--|
A|--2--|--3--|--3--|
D|--2--|--2--|--2--|


 EmCadd9
 Do you listen to yourself

 Em
Never live for someone else

 Cadd9
Do you like the way you feel

 Em
Nothing hurts when no one's real

 Em
She wants to shake this scene

C(?)
Yeah she wants to shake with me

 Em
She's not looking for the holes in all the lies

 EmCadd9
 I wanna bullet proof your soul

C(?)
Would you like to lose control

 Em
I won't let you fall until you tell me so

Pre Chorus - The timings shown are the same for this whole part

 B5C5E5D5
E|-----|------|-----|-----|
B|-----|------|-----|-----|
G|-----|------|-----|-----|
D|--9--|--10--|--2--|--0--|
A|--9--|--10--|--2--|--0--|
D|--9--|--10--|--2--|--0--|


 B5C5C5E5D5E5
 What are We | Whatcha Wanna Be

Everything | Whatcha Wanna Be

All I need | Right in front me

Chorus

G5 B5 D5 E(?) Cadd9
E|-----|-----|-----|-----|-----|
B|-----|-----|-----|--8--|--3--|
G|-----|-----|--7--|--0--|--0--|
D|--5--|--9--|--7--|--9--|--2--|
A|--5--|--9--|--5--|--7--|--3--|
D|--5--|--9--|-----|-----|-----|


G5 B5 D5 E(?) Cadd9
Would you come my way

 G5D5Cadd9
 Or did you burn out to the end

G5 B5 D5 E(?) Cadd9
Would you come my way

 G5D5Cadd9Cadd9
 Should have listened when you called my name  

Intro

Verse

Chorus

Solo

E|----------------------------------------|
B|-------------7-8-------------8h10-8-----|
G|-7-9-9---9-9-----7--7-9-9--9--------9-9-|
D|----------------------------------------|
A|----------------------------------------|
D|----------------------------------------|
E|---------------------------------------------------|
B|----------8-10-12-12-12-12-15-15-15-17-17-17-17-17-|
G|-7-9-9--9------------------------------------------|
D|---------------------------------------------------|
A|---------------------------------------------------|
D|---------------------------------------------------|


*
E|----------------10h12-12-12--10h12-12-12-10h12-12-12-10-|
B|-17----8-8-8-8------------------------------------------|
G|-------9-9-9-9------------------------------------------|
D|--------------------------------------------------------|
A|--------------------------------------------------------|
D|--------------------------------------------------------|


* = Tremolo pick

Ending - Repeat a couple of times end on Cadd9

 G5D5Cadd9
 Should have listened when you called my name


B5 C5 Cadd9 D5 E5 Em G5
variations - click chord images
Transpose chords:
Tuning:
Cool service:
View: Size:
A  A  A
Rating:
Layout:
  • Currently 3.3/5 Stars.
  • 1
  • 2
  • 3
  • 4
  • 5
 
Accuracy:
  • Currently 4.5/5 Stars.
  • 1
  • 2
  • 3
  • 4
  • 5
 
click stars to rate
Chordie recommends:
Get acoustic guitar lessons and electric guitar lessons at JamPlay.com
Songbook:
Login to add this song to your songbook
Support the artist
Preview/buy this song
MSN Music
Why this non-profit ad?

 
login to add comments/video/corrections