Guitar Tabs, Chords and Lyrics


Dizzy  Goo Goo Dolls

[Em]You're cynical and beautiful, you always make a scene
[A]You're monochrome delirious, you're nothing that you seem
[Em]I'm drowning in your vanity, your laugh is a disease
[A]You're dirty and you're sweet, you know your everything I nee[C]d[G]
Chorus:
[F]     [A2]      [C]Everyth[G]ing you are
[F]     [A2]      [C]Falls from the s[G]ky like a star
[F]     [A2]      [C]Everyth[G]ing you are
[F]     [A2]      [C]Whatever e[G]ver you want[Em]
Second Verse:
[G]I wanna k[Em]ick at the machine, that made you piss away your dreams
[A]And tear at your defenses, till there's nothing there but me
[Em]You're angry when you're beautiful, your love is such a tease
[A]I'm drowning in your dizzy noise, I wanna feel you screa[C]m [G]
Chorus:
[F]     [A2]      [C]Everyth[G]ing you are
[F]     [A2]      [C]Falls from the s[G]ky like a star
[F]     [A2]      [C]Everyth[G]ing you are
[F]     [A2]      [C]Whatever e[G]ver you want[F]
Solo: (I don't know how accurate this is, but its pretty close.
The spacing probably isn't right either.)
It sounds like there are two guitars.
Guitar 1 plays this over and over again:
G--------0-----------0--------
C-----0-----0-----0-----0-----    (There are some variations
G--0-----------0-----------0--     to this solo, and you can
D-----------------------------     probably play them both
A-----------------------------     with one guitar. So just
E-----------------------------     listen to the song and you

should figure it out.)
Guitar 2 (bend string a half step up and back down a bunch of
times for each note):
G-------------------------------------------------------------
C-------------------------------------------------------------
G------------9~~~~--7~~~~/9~~~~--7~~~~/9~~~~/14~~-------------
D--9~~--9~~----------------------------------------9/10~~~~---
A-------------------------------------------------------------
E-------------------------------------------------------------

   [A2]           [B]           [C]           [D]                                
G--0-0-0-0----0-0-0-0----0-0-0-0----0-------------------------
C--0-0-0-0----0-0-0-0----0-0-0-0----0-------------------------
G--0-0-0-0----0-0-0-0----0-0-0-0----0-------------------------
D--7-7-7-7----4-4-4-4----5-5-5-5----7-------------------------
A--7-7-7-7----2-2-2-2----3-3-3-3----5-------------------------
E--5-5-5-5----x-x-x-x----x-x-x-x----x-------------------------

Chorus (End song on F)
Questions or comments?
Contact me at lance_mar@hotmail.com

Important: The song above is NOT stored on the Chordie server. The original song is hosted at www.guitaretab.com. Chordie works as a search engine and provides on-the-fly formatting. Chordie does not index songs against artists'/composers' will. To remove this song please click here.

Text color:
Chord color:
Chord grids: 
Font size:    
Page size: 

A A2 B C D Em F G
variations - click chord images

Login - add to songbook

Transpose chords

Tuning

Rating click stars to rate

Layout
Accuracy

SHARE PAGE  




You need to log in to post comments