Guitar Tabs, Chords and Lyrics


Big Machine   Goo Goo Dolls



This is one of my favorite off of Gutterflower.
Really sweet guitar part, and played on a 4 string guitar?
yup! I Guess the other two just weren't good enough for 
this masterpiece. So here it is!

^=Hammer
/=Slide
x=Mute

Correct Tuning:

E=~
B=D
G=A#
D=~
A=A#
E=D#

Intro/Verse:
      ~~~~~~~~~~~~~~~~~~~~~~~~~~~~~~~~~~~~~~~~~~~~~~~~~~~~~~~
      ----------0-0------------0-0---0-0--0-0---0-0--0-0--0--
      5-5-5--5--4-4--4/5-5--5--4-4---0-0--0-0---0-0--0-0--0--
      ~~~~~~~~~~~~~~~~~~~~~~~~~~~~~~~~~~~~~~~~~~~~~~~~~~~~~~~
      5-5-5--5--4-4--4/5-5--5--4-4-4-4-4--4-4---4-4--4-4--2/-
      -----------------------------4-4-4--4-4---4-4--4-4--2/-

      ~~~~~~~~~~~~~~~~~~~~~~~~~~~~~~~~~~~~~~~~~~~~~~~~~~~~~~~
      ----------0-0------------0-0---3-3--0-0---5-5--3-3-0-0-
      4/5-5--5--4-4--4/5-5--5--4-4---0-0--0-0---0-0--0-0-0-0-
      ~~~~~~~~~~~~~~~~~~~~~~~~~~~~~~~~~~~~~~~~~~~~~~~~~~~~~~~
      4/5-5--5--4-4--4/5-5--5--4-4-0-2-2--0-0---4-4--2-2/0-0-
      -----------------------------0-2-2--0-0---4-4--2-2/0-0-

Pre-Chorus:
      ~~~~~~~~~~~~~~~~~~~~~~~~~~~~~~~~~~~~~~~~~~~~~~
      --3-3-3-3-3-0-0-0-0-0-0-3-3-3-3-3-0-0-0-0-0-0-
      --5-5-5-5-5-5-5-5-5-5-5-5-5-5-5-5-5-5-5-5-5-5-
      ~~~~~~~~~~~~~~~~~~~~~~~~~~~~~~~~~~~~~~~~~~~~~~
      --5-5-5-5-5-5-5-5-5-5-5-5-5-5-5-5-5-5-5-5-5-5-
      --0-0-0-0-0-0-0-0-0-0-0-0-0-0-0-0-0-0-0-0-0-0-

      ~~~~~~~~~~~~~~~~~~~~~~~~~~~~~~~~~~~~~~~~~~~~~~
      --3-3-3-3-3-0-0-0-0-0-0-3-3-3-3-3-0-0-0-0-0-0-
      --0-0-0-0-0-0-0-0-0-0-0-0-0-0-0-0-0-0-0-0-0-0-
      ~~~~~~~~~~~~~~~~~~~~~~~~~~~~~~~~~~~~~~~~~~~~~~
      --4-4-4-4-4-4-4-4-4-4-4-4-4-4-4-4-4-4-4-4-4-4-
      --4-4-4-4-4-4-4-4-4-4-4-4-4-4-4-4-4-4-4-4-4-4-

      ~~~~~~~~~~~~~~~~~~~~~~~~~~~~~~~~~~~~~~~~~~~~~~
      --3-3-3-3-3-0-0-0-0-0-0-3-3-3-3-3-0-0-0-0-0-0-
      --5-5-5-5-5-5-5-5-5-5-5-5-5-5-5-5-5-5-5-5-5-5-
      ~~~~~~~~~~~~~~~~~~~~~~~~~~~~~~~~~~~~~~~~~~~~~~
      --5-5-5-5-5-5-5-5-5-5-5-5-5-5-5-5-5-5-5-5-5-5-
      --0-0-0-0-0-0-0-0-0-0-0-0-0-0-0-0-0-0-0-0-0-0-

      ~~~~~~~~~~~~~~~~~~~~~~~
      --0--0-0--0-0-0--3-3/1-
      --0--0-0--0-0-0--0-0/0-
      ~~~~~~~~~~~~~~~~~~~~~~~
      --2--5-5--2/4-4--2-2/0-
      --2--0-0--2/4-4--2-2/0-

Chorus:
      ~~~~~~~~~~~~~~~~~~~~~~~~~~~~~~~~~~~~~~~~~~~~~~~~~~~~~~~~~~~~~~
      --0-0-0-0-0-0-0-0-0-0-0-0-0-0-0-0-0-0-0-0-0-0-0-0-0-0-0-0-0-0-
      --0-0-0-0-0-0-0-0-0-0-0-0-0-0-0-0-0-0-0-0-5-5-5-5-5-4-4-4-0-0-
      ~~~~~~~~~~~~~~~~~~~~~~~~~~~~~~~~~~~~~~~~~~~~~~~~~~~~~~~~~~~~~~
      --7-7-7-7-7-7-7-7-7-7/2-2-2-2-2-2-2-2-2-2-x-x-x-x-x-x-x-x-x-x-
      --7-7-7-7-7-7-7-7-7-7/2-2-2-2-2-2-2-2-2-2/4-4-4-4-4-4-4-4-4-4-

      ~~~~~~~~~~~~~~~~~~~~~~
      --0-0-0-0-0-0-0-0-0-0-
      --0^2-2-2-0-0^2-4-2-0-
      ~~~~~~~~~~~~~~~~~~~~~~
      --x-x-x-x-x-x-x-x-x-x-
      --2-2-2-2-2-2-2-2-2-2-

      ~~~~~~~~~~~~~~~~~~~~~~~~~~~~~~~~~~~~~~~~~~~~~~~~~~~~~~~~~~~~~~
      --0-0-0-0-0-0-0-0-0-0-0-0-0-0-0-0-0-0-0-0-0-0-0-0-0-0-0-0-0-0-
      --0-0-0-0-0-0-0-0-0-0-0-0-0-0-0-0-0-0-0-0-5-5-5-5-5-4-4-4-0-0-
      ~~~~~~~~~~~~~~~~~~~~~~~~~~~~~~~~~~~~~~~~~~~~~~~~~~~~~~~~~~~~~~
      --7-7-7-7-7-7-7-7-7-7/2-2-2-2-2-2-2-2-2-2-x-x-x-x-x-x-x-x-x-x-
      --7-7-7-7-7-7-7-7-7-7/2-2-2-2-2-2-2-2-2-2/4-4-4-4-4-4-4-4-4-4-

      ~~~~~~~~~~~~~~~~~~~~~~~~~~~~~~~~~~~~~~~~~~~~~~~~~~~~~~
      --0-0-0-0-0-0-0-0-0-0--8-8-8--8-8--8-8--8-8-8-8-8-8-8-
      --0^2-2-2-0-0^2-4-2-0--7-7-7--7-7--7-7--7-7-7-7-7-7-7-
      ~~~~~~~~~~~~~~~~~~~~~~~~~~~~~~~~~~~~~~~~~~~~~~~~~~~~~~
      --x-x-x-x-x-x-x-x-x-x--0-0-0--0-0--0-0--0-0-0-0-0-0-0-
      --2-2-2-2-2-2-2-2-2-2--0-0-0--0-0--0-0--0-0-0-0-0-0-0-

Bridge:
      ~~~~~~~~~~~~~~~~~~~~~~~~~~~~~~~~~~~~~~~~~~~~~~~~~~~~~~~~~~~~~~~~~~~~~~~~~
      --8-8-8--8-8--8-8-8--8-8--8-8-8--8-8--8-8-8--8-8--8-8-8--8-8--8-8-8--8-8-
      --7-7-7--7-7--7-7-7--7-7--7-7-7--7-7--7-7-7--7-7--7-7-7--7-7--7-7-7--7-7-
      ~~~~~~~~~~~~~~~~~~~~~~~~~~~~~~~~~~~~~~~~~~~~~~~~~~~~~~~~~~~~~~~~~~~~~~~~~
      --0-0-0--0-0--0-0-0--0-0--0-0-0--0-0--0-0-0--0-0--0-0-0--0-0--0-0-0--0-0-
      --0-0-0--0-0--0-0-0--0-0--x-x-x--x-x--x-x-x--x-x--x-x-x--x-x--x-x-x--x-x-

Outro:
      ~~~~~~~~~~~~~~~~~~~~~~~~~~~~~~~~~~~~~~~~~~~~~~~~~~~~~~~~~~~~~~~~~
      --0-0-0-0-0-0-0-0-0-0-1-1-1-1-1-0-0-0-0-0-8-8-8--8-8--8-8-8--8-8-
      --5-5-5-5-5-4-4-4-0-0-2-2-2-2-2-2-2-2-0-0-7-7-7--7-7--7-7-7--7-7-
      ~~~~~~~~~~~~~~~~~~~~~~~~~~~~~~~~~~~~~~~~~~~~~~~~~~~~~~~~~~~~~~~~~
      --4-4-4-4-4-4-4-4-4-4/2-2-2-2-2-2-2-2-2-2-0-0-0--0-0--0-0-0--0-0-
      --4-4-4-4-4-4-4-4-4-4/2-2-2-2-2-2-2-2-2-2-0-0-0--0-0--0-0-0--0-0-

      ~~~~~~~~~~~~~~~~~~~~~~~~~~~~~~~~~~~~~~~~~~~~~~~~~~~~~~~~~~~~~~~~~
      --0-0-0-0-0-0-0-0-0-0-1-1-1-1-1-0-0-0-0-0-8-8-8--8-8--8-8-8--8-8-
      --5-5-5-5-5-4-4-4-0-0-2-2-2-2-2-2-2-2-0-0-7-7-7--7-7--7-7-7--7-7-
      ~~~~~~~~~~~~~~~~~~~~~~~~~~~~~~~~~~~~~~~~~~~~~~~~~~~~~~~~~~~~~~~~~
      --4-4-4-4-4-4-4-4-4-4/2-2-2-2-2-2-2-2-2-2-0-0-0--0-0--0-0-0--0-0-
      --4-4-4-4-4-4-4-4-4-4/2-2-2-2-2-2-2-2-2-2-0-0-0--0-0--0-0-0--0-0-

      ~~~~~~~~~~~~~~~~~~~~~~~~~~~~~~~~~~~~~~~~~~~~~~~~~~~~~~~~~~~~~~~~~
      --0-0-0-0-0-0-0-0-0-0-1-1-1-1-1-0-0-0-0-0-8-8-8--8-8--8-8-8--8-8-
      --5-5-5-5-5-4-4-4-0-0-2-2-2-2-2-2-2-2-0-0-7-7-7--7-7--7-7-7--7-7-
      ~~~~~~~~~~~~~~~~~~~~~~~~~~~~~~~~~~~~~~~~~~~~~~~~~~~~~~~~~~~~~~~~~
      --4-4-4-4-4-4-4-4-4-4/2-2-2-2-2-2-2-2-2-2-0-0-0--0-0--0-0-0--0-0-
      --4-4-4-4-4-4-4-4-4-4/2-2-2-2-2-2-2-2-2-2-0-0-0--0-0--0-0-0--0-0-

      ~~~~~~~~~~~~~~~~~~~~~~~~~~~~~~~~~~~~~~~~~~~~
      --0-0-0-0-0-0-0-0-0-0-1-1-1-1-1-0-0-0-0-0-8-
      --5-5-5-5-5-4-4-4-0-0-2-2-2-2-2-2-2-2-0-0-7-  (Let Ring)
      ~~~~~~~~~~~~~~~~~~~~~~~~~~~~~~~~~~~~~~~~~~~~
      --4-4-4-4-4-4-4-4-4-4/2-2-2-2-2-2-2-2-2-2-0-
      --4-4-4-4-4-4-4-4-4-4/2-2-2-2-2-2-2-2-2-2-0-


Important: The song above is NOT stored on the Chordie server. The original song is hosted at www.guitaretab.com. Chordie works as a search engine and provides on-the-fly formatting. Chordie does not index songs against artists'/composers' will. To remove this song please click here.

This song is displayed as text-only. Transposing and tuning is only available for chordpro-songs.

Login - add to songbook

Rating click stars to rate

Layout
Accuracy

SHARE PAGE  




You need to log in to post comments