Two Days In February

Goo Goo Dolls

 EAbA#7A
E|0-0-0-0-0-0-0-0-0-0-0-0-0-0-0|
B|0-0-0-0-0-0-0-0-0-0-0-0-0-0-0|
G|1-1-1-1-0-0-0-4-4-4-4-0-0-0-0|
D|2-2-2-2-6-6-6-6-6-6-6-7-7-7-7|
A|2-2-2-2-6-6-6-6-6-6-6-7-7-7-7|
E|0-0-0-0-4-4-4-5-5-5-5-5-5-5-5|

Intro Pt. 2:
 EAbBm/EAm7
E|0-0-0-0-0-0-0-0-0-0-0-0-0-0-0|
B|0-0-0-0-0-0-0-0-0-0-0-0-0-0-0|
G|1-1-1-1-0-4-2-2-2-2-2-2-2-2-2|
D|2-2-2-2-6-4-2-2-2-2-2-2-2-2-2|
A|2-2-2-2-6-2-0-0-0-0-0-0-0-0-0|
E|0-0-0-0-4-0-0-0-0-0-0-0-0-0-0|

Verse:
 EAbA#7A
E|0-0-0-0-0-0-0-0-0-0-0-0-0-0-0|
B|0-0-0-0-0-0-0-0-0-0-0-0-0-0-0|
G|1-1-1-1-0-0-0-4-4-4-4-0-0-0-0|
D|2-2-2-2-6-6-6-6-6-6-6-7-7-7-7|
A|2-2-2-2-6-6-6-6-6-6-6-7-7-7-7|
E|0-0-0-0-4-4-4-5-5-5-5-5-5-5-5|

Transfer-1:
 EAbAm7
E|0-0-0-0-0-0-0-0-0-0-0-0-0-0-0|
B|0-0-0-0-0-0-0-0-0-0-0-0-0-0-0|
G|1-1-1-1-0-0-0-2-2-2-2-2-2-2-2|
D|2-2-2-2-6-6-6-2-2-2-2-2-2-2-2|
A|2-2-2-2-6-6-6-0-0-0-0-0-0-0-0|
E|0-0-0-0-4-4-4-0-0-0-0-0-0-0-0|

Chorus:
 EBAm7
E|0-0-0-0-0-0-0-0-0-0-0-0-0-0-0-0-0-0-0-0-0-0-0-0-0-0-0-0-0-0-0-0|
B|0-0-0-0-0-0-0-0-0-0-0-0-0-0-0-0-0-0-0-0-0-0-0-0-0-0-0-0-0-0-0-0|
G|1-1-1-1-1-1-1-1-1-1-1-1-1-1-1-1-0-0-0-0-0-0-0-0-2-2-2-2-2-2-2-2|
D|2-2-2-2-2-2-2-2-2-2-2-2-2-2-2-2-4-4-4-4-4-4-4-4-2-2-2-2-2-2-2-2|
A|2-2-2-2-2-2-2-2-2-2-2-2-2-2-2-2-4-4-4-4-4-4-4-4-0-0-0-0-0-0-0-0|
E|0-0-0-0-0-0-0-0-0-0-0-0-0-0-0-0-2-2-2-2-2-2-2-2-0-0-0-0-0-0-0-0|

Transfer-2:
 EAbAm7
E|0-0-0-0-0-0-0-0-0-0-0-0-0-0-0|
B|0-0-0-0-0-0-0-0-0-0-0-0-0-0-0|
G|1-1-1-1-1-1-1-1-1-1-1-1-1-1-1|
D|2-2-2-2-2-2-2-2-2-2-2-2-2-2-2|
A|2-2-2-2-2-2-2-2-2-2-2-2-2-2-2|
E|0-0-0-0-0-0-0-0-0-0-0-0-0-0-0|

Interlude:
 EBA
E|0-0-0-0-0-0-0-0-0-0-0-0-0-0-0-0-0-0-0-0-0-0-0-0-0-0-0-0-0-0-0-0|
B|0-0-0-0-0-0-0-0-0-0-0-0-0-0-0-0-0-0-0-0-0-0-0-0-0-0-0-0-0-0-0-0|
G|1-1-1-1-1-1-1-1-1-1-1-1-1-1-1-1-0-0-0-0-0-0-0-0-0-0-0-0-0-0-0-0|
D|2-2-2-2-2-2-2-2-2-2-2-2-2-2-2-2-4-4-4-4-4-4-4-4-7-7-7-7-7-7-7-7|
A|2-2-2-2-2-2-2-2-2-2-2-2-2-2-2-2-4-4-4-4-4-4-4-4-7-7-7-7-7-7-7-7|
E|0-0-0-0-0-0-0-0-0-0-0-0-0-0-0-0-2-2-2-2-2-2-2-2-5-5-5-5-5-5-5-5|

 EBA
E|0-0-0-0-0-0-0-0-0-0-0-0-0-0-0-0-0-0-0-0-0-0-0-0-0-0-0-0-0-0-0-0|
B|0-0-0-0-0-0-0-0-0-0-0-0-0-0-0-0-0-0-0-0-0-0-0-0-0-0-0-0-0-0-0-0|
G|1-1-1-1-1-1-1-1-1-1-1-1-1-1-1-1-0-0-0-0-0-0-0-0-0-0-0-0-0-0-0-0|
D|2-2-2-2-2-2-2-2-2-2-2-2-2-2-2-2-4-4-4-4-4-4-4-4-7-7-7-7-7-7-7-7|
A|2-2-2-2-2-2-2-2-2-2-2-2-2-2-2-2-4-4-4-4-4-4-4-4-7-7-7-7-7-7-7-7|
E|0-0-0-0-0-0-0-0-0-0-0-0-0-0-0-0-2-2-2-2-2-2-2-2-5-5-5-5-5-5-5-5|

Interlude Pt. 2(in some versions of song):
E|----0-------0---------0-------0--|
B|--0---0---0---0-----0---0---0---0|
G|---------------------------------|
D|2-------2---------2-------2------|
A|---------------------------------|
E|---------------------------------|

Ending:
 Bm/EAm7E
E|0-0-0-0-0-0-0-0-0-0-0-0-0-0-0-0-0------0|
B|0-0-0-0-0-0-0-0-0-0-0-0-0-0-0-0-0-----0-|
G|4-4-4-4-4-4-4-4-2-2-2-2-2-2-2-2-2----1--| Just Strum The E Slowly
D|4-4-4-4-4-4-4-4-2-2-2-2-2-2-2-2-2---2---| To End The Song.
A|2-2-2-2-2-2-2-2-0-0-0-0-0-0-0-0-0--2----|
E|0-0-0-0-0-0-0-0-0-0-0-0-0-0-0-0-0-0-----|

Order Of Play(may be hard to understand/see but you'll work it out):
Intro x3
Intro Pt. 2 x1
Verse x2
Transfer-1 x1
Verse x2
Transfer-1 x1
Chorus x2
Transfer-2 x1
Verse x2
Chorus x2
Transfer-2 x1
Interlude x2
Interlude Pt. 2 x2
Verse x3
Ending x1
And there you have it Two Days In February by the Goo Goo Dolls.
Enjoy!





A A#7 Ab Am7 B Bm/E E
variations - click chord images
Transpose chords:
Tuning:
Cool service:
View: Size:
A  A  A
Rating:
Layout:
  • Currently 2.8/5 Stars.
  • 1
  • 2
  • 3
  • 4
  • 5
 
Accuracy:
  • Currently 3/5 Stars.
  • 1
  • 2
  • 3
  • 4
  • 5
 
click stars to rate
Chordie recommends:
Learn to play guitar with video-based, online guitar lessons at JamPlay.com
Songbook:
Login to add this song to your songbook
Support the artist
Preview/buy this song
MSN Music
Why this non-profit ad?

 
login to add comments/video/corrections