Guitar Tabs, Chords and Lyrics


January Friend  Goo Goo Dolls

e -----2-3-2--0----|-----2-3-2--0----|-----2-3-2--0----|-0-0--3-3--5---


B -3---3-3-3--3--3-|-3---3-3-3--3--3-|-3---3-3-3--3--3-|-0-0--3-3--5---


G -2-------------2-|-2-------------2-|-2-------------2-|---------------


D -0---------------|-0---------------|-0---------------|---------------


A -----------------|-----------------|-----------------|---------------


E -----------------|-----------------|-----------------|---------------


e -----2-3-2--0----|-----2-3-2--0----|-----2-3-2--0----|-----------5---


B -3---3-3-3--3--3-|-3---3-3-3--3--3-|-3---3-3-3--3--3-|-5--3--5---5---


G -2-------------2-|-2-------------2-|-2-------------2-|-2--2--2-------


D -0---------------|-0---------------|-0---------------|---------------


A -----------------|-----------------|-----------------|---------------


E -----------------|-----------------|-----------------|---------------

[E5]Reach
For higher [C5]ground
About the [G5]way you look
The way you scream out [D5]loud[Db5]
[E5]Mine
Just like the [C5]last time
It's all the [G5]same to me
She[A5] said
Chorus:
Let's [D5]pretend
My [G5]January [D5]friend
I'm [G5]wantin' you [D5]again
I [G5]wanna touch you
C5/riff 1 A5
Every single heart that beats
Pre[D5]tend
My [G5]January [D5]friend
I'm [G5]wantin' you [D5]again
I [G5]wanna touch you
C5/riff 1 A5
Every single heart that beats
(verse)
Cry
Don't cry out loud
You've gotta bear your cross
But never dream too loud and you're
Tied
Tied to the next time
You realize your crimes
(chorus)
Let's pretend
My January friend
I'm wantin' you again
I wanna touch you
Every single heart that beats
Pretend
My january friend
I'm wantin' you again
I wanna touch you
Every single heart that beats
Bridge (use verse progression):
Time stood still Monday morning yeah
Showed me what I had to see
It's not the way I thought it should be
Oh yeah
Solo (use verse progression):
(chorus)
You're my January friend
You're my January friend
You're my January friend
And every heart that beats pretend
My January friend
You're my January friend
You're my January friend
You're my January friend
And every heart that beats tonight
Pre[D5]tend

Important: The song above is NOT stored on the Chordie server. The original song is hosted at www.guitaretab.com. Chordie works as a search engine and provides on-the-fly formatting. Chordie does not index songs against artists'/composers' will. To remove this song please click here.

Text color:
Chord color:
Chord grids: 
Font size:    
Page size: 

A5 C5 D5 Db5 E5 G5
variations - click chord images

Login - add to songbook

Transpose chords

Tuning

Rating click stars to rate

Layout
Accuracy

SHARE PAGE  




You need to log in to post comments