Guitar Tabs, Chords and Lyrics


You Never Know  Goo Goo Dolls

e|----------------------|--------------0------|---------------------|


B|----------------------|---------------------|---------------------|


G|---------5------5-----|--5-------5------5---|--------5------5-----|

D|---2--2-----2------2--|------3--------------|--0--0-----0------0--|
A|----------------------|---------------------|---------------------|
E|----------------------|---------------------|---------------------|
e|------------------|
B|-----------3------|
G|--5-----5------5--|
D|-----0------------|
A|------------------|
E|------------------|
You [C5]Hit me like I [D5]never felt bef[F5]ore
[C5]Hit me like a [A5]sucker punch
[F5]Rotten to the core
You Know you [C5]hit me like I [D5]never felt be[F5]fore
Silly for the last [C5]time
(play intro 2x)

Verse (play intro)
You never take
A promise from a man who sheds his skin
Had to wait
for my aching heart to break

Repeat Chours

Bridge:
[D5]Now [E5]everyone gets [F5]angry   [D5]
And I [C5]feel it when you [G5]holdin me
But in the right [D5]place at the [E5]right time
to the right [F5]degree it's breeding ground for[E5] the [D5]pain
fr[A5]om dealing with you[G5]r scene
You know it ain't [C5]easy [G5]

Outro Chours
[C5]Hit me like I [G5]never felf be[F5]fore
[C5]Hit me like I [G5]never felf be[F5]fore
[C5]Hit me like I [G5]never felf be[F5]fore
I'm silly for the la[C5]st time

Important: The song above is NOT stored on the Chordie server. The original song is hosted at www.guitaretab.com. Chordie works as a search engine and provides on-the-fly formatting. Chordie does not index songs against artists'/composers' will. To remove this song please click here.

Text color:
Chord color:
Chord grids: 
Font size:    
Page size: 

A5 C5 D5 E5 F5 G5
variations - click chord images

Login - add to songbook

Transpose chords

Tuning

Rating click stars to rate

Layout
Accuracy

SHARE PAGE  




You need to log in to post comments