Guitar Tabs, Chords and Lyrics


All Eyes On Me   Goo Goo Dolls



----------------------------------------------------------------------------
			 All Eyes On Me - GOO GOO DOLLS
----------------------------------------------------------------------------
Tabbed by: MasterXaero*
Figured out by: "Mark"
Email: MasterXaero8@hotmail.com

Tuning: E ->keep as-> E
        B ->keep as-> B
        G ->keep as-> G
	D ->keep as-> D
	A ->keep as-> A 
	E ->keep as-> E 

| /  slide up
| \  slide down
| h  hammer-on
| p  pull-off
| ~  vibrato
| +  harmonic
| x  Mute note
| r  Rest

This is one of the Goo Goo Dolls' most amazing songs... this isn't how John Rzeznik
plays it because it was tabbed out so one guitar could play both parts (in the actual
song there are two guitars). It still sounds pretty good, give it a try, it beats the
heck out of tuning your guitar just to play one song.
Any questions/comments E-Mail me. Figure out the strumming:

===================================================

Intro/Verse:

e|-0-0-0-3-0--0-0-0-0-|
B|-1-3-1-1-1--1-3-1-1-|
G|-2-2-2-2-2--2-2-2-2-|     Clean
D|-2-2-2-2-2--2-2-2-3-|
A|-0-0-0-0-0--0-0-0-0-|
E|--------------------|

===================================================

Chorus:

e|---------------|
B|-6-5-7-5-------|
G|-5-5-5-5-------|
D|-5-5-5-5-0-2-3-| (3x)
A|---------0-2-3-|
E|-----------0-1-|

...then:

e|---------|
B|---------|
G|-5-5-----|                     Distortion
D|-5-5-5-3-| (2x)
A|-3-0-5-3-|
E|-----3-1-|

...and finally:

e|---0-0-|
B|---1-1-|
G|---2-2-|
D|-2-2-3-|
A|-2-0-0-|
E|-0-----|

===================================================

Interlude:

e|---------------------|
B|---------------------|
G|------12-12-12-12-10-|           Distortion
D|-77-5-12-12-12-12-10-| (4x)
A|-77-5-10-10-10-10-10-|
E|-55-3----------------|

===================================================

Solo (Distortion):

e|------------------------------------------------------------------------|
B|------------------------------------------------------------------------|
G|-12-10-9-7-9-7-5-5/7-7/10-9\7\5-7-5-16-17-10-10\9-7-9-9-5/7-7/10-9-9-10-|
D|-xx-x--x-x-x-x-x-x/x-x/x--x\x\x-x-x-xx-xx-xx-xx\x-x-x-x-x/x-x/xx-x-x-xx-|
A|-10-8--7-5-7-5-3-3/5-5/8--7\5\3-5-3-14-15-8--8-\7-5-7-7-3/5-5/-8-7-7--8-|
E|------------------------------------------------------------------------|

e|---------------------------------------------|
B|---------------------------------------------|
G|-12-12-16-17-10-10-9-7-9-9-16-17-10-10-9-7-5-|
D|-xx-xx-xx-xx-xx-xx-x-x-x-x-xx-xx-xx-xx-x-x-x-|
A|-10-10-14-15--8--8-7-5-7-7-14-15--8--8-7-5-3-|
E|---------------------------------------------|

e|-----0------0------0----|
B|-3------5------5------1-|      \      Clean
G|---0------0------0------| (3x)  >      and
D|-5------7------3--------|      /   Fingerpicked
A|----------------------3-|
E|------------------------|

===================================================

Ending

e|----------|
B|----------|
G|------3-5-| (7x)
D|-5-7--3-5-|
A|-5-7--3-3-|
E|-3-5------|

===================================================

Order....

Intro 2x
Verse 3x
Chorus
Intro 2x
Verse 2x
Intro 2x
Interlude
Solo
Ending

===================================================

Lyrics....

Daylight burns your sleepy eyes and
It's hard to see you dreaming
You hide inside yourself and
I wondered what you're thinking
And everything you're chasing
It seems to leave you empty 

And it won't take long to burn
Through the nothing that you've learned
And the things you choose to be
All eyes on me 

But your eyes look away
It's so hard to be someone
Strung out from today
And all that you knew slips away 

You drown in deeper oceans
Inventing new religions
They smile and stab my back and
I lie and have to laugh 

And it won't take long to burn
Through the nothing that you've learned
And the things you choose to be
All eyes on me 

But your eyes look away
It's so hard to be someone
Strung out from today
And all that you knew slips away
 
And you hide in your room
And the light burned away
And you move from the truth
It's all so far from you 

============================================================================
Special thanks to my guitar teacher, Mark, for figuring out this song for me.
I wasn't sure about posting his full name so I just put his first name.


Important: The song above is NOT stored on the Chordie server. The original song is hosted at www.guitaretab.com. Chordie works as a search engine and provides on-the-fly formatting. Chordie does not index songs against artists'/composers' will. To remove this song please click here.

This song is displayed as text-only. Transposing and tuning is only available for chordpro-songs.

Login - add to songbook

Rating click stars to rate

Layout
Accuracy

SHARE PAGE  




You need to log in to post comments