Guitar Tabs, Chords and Lyrics


Tucked Away  Goo Goo Dolls

e|-------------------|------------------|--------------------|


B|-------------------|------------------|--------------------|


G|--6--6--4--4--4--2-|--2--2----2--2--2-|--4--4---2--2--2----|

D|--6--6--4--4--4--2-|--2--2----2--2--2-|--4--4---2--2--2----|
A|--4--4--2--2--2--0-|--0--0----0--0--0-|--2--2---0--0--0--2-|
E|-------------------|------------------|--------------------|
e|-------------------
B|-------------------
G|------------------- repeat
D|------------------- 1x
A|--2--2--2--2--2--2-
E|--0--0--0--0--0--0-
[E5]Well I [C#5]saw you on[B5]ce   [A5]
Then I [B5]blew it fo[A5]r the n[E5]ext ten thousand days [C#5]     [B5]    [A5]
Shoulda pack[B5]ed awa[A5]y   [E5]
I [C#5]needed t[B5]o go [A5]back and show you
I [B5]needed [A5]to go [E5]back, I know it's w[C#5]rong
I'll have to [B5]get along[A5]    [E5]
Chorus:
[F#5]Mama just calle[A5]d and said s[E5]he's tucked away
[F#5]Mama just calle[A5]d and said s[E5]he's tucked away another day
[F#5]Her mama just c[A5]alled and sa[E5]id she's tucked away
Her [F#5]momma just c[A5]alled and said she's e[B5]xtra s[A5]ad to[E5]day


Verse
Well I spent the whole day yesterday on cliches about love
Makin' me remember when your pushes became shoves


Pre Chpurs
I wanted to go back and show you
I needed to go back, I know it's wrong
I'll have to get along

Chorus

Bridge:
Now [E5]why'd you go and pla[A5]y my trust
Today's the same as yest[C#5]erday   [E5]
And I'm o[A5]kay
I'll [C#5]take a doctor's [E5]recommended ti[A5]me to get along
Since you've been gon[C#5]e     [E5]
I'll [A5]get along oh[B5] any way at all[F#5]

Chours

Important: The song above is NOT stored on the Chordie server. The original song is hosted at www.guitaretab.com. Chordie works as a search engine and provides on-the-fly formatting. Chordie does not index songs against artists'/composers' will. To remove this song please click here.

Text color:
Chord color:
Chord grids: 
Font size:    
Page size: 

A5 B5 C#5 E5 F#5
variations - click chord images

Login - add to songbook

Transpose chords

Tuning

Rating click stars to rate

Layout
Accuracy

SHARE PAGE  




You need to log in to post comments