Guitar Tabs, Chords and Lyrics


Nothing Can Change You  Goo Goo Dolls

eb--0---0-0-x-0-00-0-0--|--0--0-0-0-0-0--0--0-0-0--0--0--|


B --4---4-6-x-6-77-7-7--|--4--4-6-6-7/9--9/11-9-9/11-11--|


Gb--4---4-6-x-6-77-7-7--|--4--4-6-6-7/9--9/11-9-9/11-11--|

Db--0---0-0-x-0-00-0-0--|--0--0-0-0-0-0--0--0-0-0--0--0--|
Ab----------------------|--------------------------------|
Eb----------------------|--------------------------------|
    [G5]                                 
Now nothing can change you

C5 G5 D5 E5(VII)

When you feel foreign to love

     [G5]                                
Your world has a strange view

C5 G5 D5 (Back to the verse riff)

Can you tell me things that you're dreaming of?(verse)

Stop fallin' in love

With everything that lets you down

There's someone above

And I know she wears glasses

Sometimes she says it helps her move

I see her in the long ride home

I guess I never spoke too soon(chorus)

Now nothing can change you

When you feel foreign to love

Your world has a strange view

Can you tell me things that you're dreaming of?C5 - G5 (x4)Bridge:

[C5]       [G5]             [C5]     [G5]            
You don't wanna get left behind

F5(VII) C5 F5(VII) C5

You wanna find some piece of mind

[C5]        [G5]            [C5]         [G5]        
You say it takes a long time there

F5(VII) C5 F5(VII) C5

She was there, she was in the crowdSolo: Give me time and I'll get it right.(verse)

You went rollin' along

When everybody wants to ride

Now Joe's never home

Looking at the tableside

Where everything is chained to you know that

You're wakin' up to die inside

Now there's nowhere left to go(chorus)

Now nothing can change you

When you feel foreign to love

Your world has a strange view

And you tell me things that you love(chorus)

Now nothing can change you

When you feel foreign to love

Your world has a strange view

And you tell me things that you're dreaming of Outro:
eb--0---0-0-x-0-00-0-0--|--0---0-0-0--0--0--0--0--0--|
B --4---4-6-x-6-77-7-7--|--4---4-6-6/-9--9/11-11-11--|
Gb--4---4-6-x-6-77-7-7--|--4---4-6-6/-9--9/11-11-11--|
Db--0---0-0-x-0-00-0-0--|--0---0-0-0--0--0--0--0--0--|
Ab----------------------|----------------------------|
Eb----------------------|----------------------------|
eb--0--0--0--0----0--0--0---0--0--0--|
B --9/11-11-11----9/11-11---9/11-11--|
Gb--9/11-11-11----9/11-11---9/11-11--|
Db--0--0--0--0----0--0--0---0--0--0--|
Ab-----------------------------------|
Eb-----------------------------------|
eb--0----0----0--0--|
B --9-/-11-\--9--7--|
Gb--9-/-11-\--9--7--|
Db--0----0----0--0--|
Ab------------------|
Eb------------------|

Important: The song above is NOT stored on the Chordie server. The original song is hosted at www.guitaretab.com. Chordie works as a search engine and provides on-the-fly formatting. Chordie does not index songs against artists'/composers' will. To remove this song please click here.

Text color:
Chord color:
Chord grids: 
Font size:    
Page size: 

C5 G5
variations - click chord images

Login - add to songbook

Transpose chords

Tuning

Rating click stars to rate

Layout
Accuracy

SHARE PAGE  




You need to log in to post comments