Chordie logo
content loaded from cache

Slide Acoustic  Goo Goo Dolls

e-----------------------------------------|


B------3-------3---------3-------3----3---|


G----0---2---2---2-----0---0---0----------|


D--2-------0-------0----------------------|


A--------------------3--------------------|


E----------------------------3-----2------|



e-----------------------------------------|


B------3-------3---------3-------3----3---|


G----0---2---2---2-----0---0---0----------|


D--2-------0-------0----------------------|


A--------------------3--------------------|


E----------------------------3-----2------|



[Em7]Could you whisper in my [Dsus2]ear

The things you wanna [Cadd9]feel


I'll give you anything to feel it coming.

[Em7]Do you wake up on your [Dsus4]own,

Wonder where you [Cadd9]are


Live with all your faults?


                        [Cadd9]                                                                     
Riff:  -------------------3------|
       --------3----------3------|
       ------0---0--------0------|
       --0h2-------0------2------|
       -------------------3------|
       -------------------0------|


I wanna wake up where you are


                        [Cadd9]                                                                     
Riff:  -------------------3------|
       --------3----------3------|
       ------0---0--------0------|
       --0h2-------0------2------|
       -------------------3------|
       -------------------0------|



I won't say anything at all,

[Dsus2]So why don't you slide?


play these chords: Cadd9, G, Cadd9, G, Cadd9, G, Dsus2


[Em7]Don't you love the life you [Dsus2]killed?

The priest is on the [Cadd9]phone


Your father hit the wall


Your Ma disowned you.

[Em7]I don't suppose I'll ever [Dsus2]know

What it means to be a [Cadd9]man


It's something I can't change


I'll live around it...

I wanna wake up where you are

                        [Cadd9]                                                                    
Riff:  -------------------3------|
       --------3----------3------|
       ------0---0--------0------|
       --0h2-------0------2------|
       -------------------3------|
       -------------------0------|



I won't say anything at all

[Dsus2]So why don't you slide?


Play these: Cadd9, G, Cadd9, G, Cadd9, G, Dsus2

[Cadd9]And I'll do any[G]thing you ever [Cadd9]dreamed to be com[G]plete

Little [Cadd9]pieces of the [G]nothing that [Dsus2]fall

[Em7]Oh May, put your arms a[Dsus2]round me

What you [Cadd9]feel is what you a[G]re and what you [Cadd9]are is beauti[G]ful

Em7 Dsus2 Cadd9 (leading into the bridge)
Oh May, you wanna get married, or run away?


Bridge: Cadd9, G, Cadd9, G, Cadd9, G, Dsus2


[Cadd9]And I'll do any[G]thing you ever [Cadd9]dreamed to be com[G]plete

Little [Cadd9]pieces of the [G]nothing that [Dsus2]fall

[Em7]Oh May, put your arms a[Dsus2]round me

What you [Cadd9]feel is what you [G]are and what you [Cadd9]are is beauti[G]ful

Em7 Dsus2 Cadd9, G, Cadd9 (leads into riff)
Oh May, you wanna get married, or run away?

I wanna wake up where you are...[Dsus2]

[Cadd9]And I'll do any[G]thing you ever [Cadd9]dream to be com[G]plete

Little [Cadd9]pieces of the [G]nothing that [Dsus2]fall...


Why don't you [Cadd9]slide between them [G]sheets of all those [Cadd9]beds you never [G]knew

Just [Cadd9]slide up to my [G]room, just [Em7]slide up to my [Dsus2]room


And I will run away, run away run away...


Outro:


e-----------------------------------------|
B------3-------3---------3-------3----3---|
G----0---2---2---2-----0---0---0----------|
D--2-------0-------0----------------------|
A--------------------3--------------------|
E----------------------------3-----2------|


                               [G]                                                             
e------------------------------3--|
B------3-------3---------3-----3--|
G----0---2---2---2-----0---0---0--|
D--2-------0-------0-----------0--|
A--------------------3---------2--|
E------------------------------3--|				


Important: The song above is NOT stored on the Chordie server. The original song is hosted at www.guitaretab.com. Chordie works as a search engine and provides on-the-fly formatting. Chordie does not index songs against artists/composers will. To remove this song please click here.

Cadd9 Dsus2 Dsus4 Em7 G
variations - click chord images

Transpose chords

Tuning

Rating click stars to rate

Layout
Accuracy

SHARE PAGE  

You need to log in to post comments