Guitar Tabs, Chords and Lyrics


Already There  Goo Goo Dolls



e ---------------------------

B -----0h3---0-3---0---------
G -0h2---------------2-0-----
D ---------------------------
A ---------------------------
E ---------------------------
[D5]I look out[G5]side my window
[B5]Everything was [A5]blanketed in [D5]white
The neighbors [G5]pushing cars out
[B5]From snow that [A5]fell on us last [D5]night
Started [G5]thinking 'bout
The [B5]things we used to [A5]do when we were [D5]young
Back when [G5]things were simple
And [B5]getting up was [A5]fun
(chorus)
I couldn't [G5]care[A5], 'cause I'm already [G5]there
[A5]I'm already [G5]there[A5], and I'm ready [G5]there  [A5]

(verse)
Turn around and face the clock
I'd sit and watch, as time went hoppin' by
I'm still growing up
My friends are growing old before my eyes
Count the stars above
Wonder when the heavens will subside
Knowing our two worlds
Will someday just collide

(chorus)
I couldn't care, 'cause I'm already there.
I'm already there, and I'm ready there

(solo)
e -------------------------|----------------------------
B -------------------------|----------------------------
G -------------------------|----------------------------
D -------------------------|----------------------------
A -7---5h7---5h7---5h7--9--|-7---5h7---5h7---5----------
E -------------------------|---------------------5------
e -------------------------|----------------------------
B -------------------------|----------------------------
G -------------------------|----------------------------
D -------------------------|-7-------------4-7-4--------
A -7---5h7---5h7---5h7--9--|---9-7-5---5-7-------7-5----
E -------------------------|----------------------------
e -------------------------|----------------------------
B -------------------------|----------------------------
G -------------------------|----7-9-9---7-7---6-6--6----
D --7--9--7---7-9--7-------|--9-------------------------
A -------------------------|----------------------------
E -------------------------|----------------------------
e ---0-0-0-0-0-0-0-0-------|----------------------------
B --3-3-5-7-8-8-7-8-10-----|-(10)-----10/12\10----------
G -------------------------|----------------------------
D -------------------------|----------------------------
A -------------------------|----------------------------
E -------------------------|----------------------------


(verse)
Just a boy who's young at heart
His smile was a bit like yours today
Had a wife, a kid, some strife
Never had to go astray
Happiness evolved
Life was in full swing
At 17, all the things he wanted
Were things he'd never seen

(chorus)
It don't seem fair, cuz I'm already there
I'm already there, and I'm ready there

(ending)
Play intro 4 times
End on D5

This file is copyright goo@soong.heinous.net, 1997. You are
free to use it for your personal or educational use, but permission must
be granted to post this transcription. Thank you.

Important: The song above is NOT stored on the Chordie server. The original song is hosted at www.guitaretab.com. Chordie works as a search engine and provides on-the-fly formatting. Chordie does not index songs against artists'/composers' will. To remove this song please click here.

Text color:
Chord color:
Chord grids: 
Font size:    
Page size: 

A5 B5 D5 G5
variations - click chord images

Login - add to songbook

Transpose chords

Tuning

Rating click stars to rate

Layout
Accuracy

SHARE PAGE  




You need to log in to post comments