Guitar Tabs, Chords and Lyrics


Burnin Up  Goo Goo Dolls

E|--3-3-3-3-3-2-2-2--|


B|--3-3-3-3-3-3-3-3--|


G|--0-0-0-0-0-0-0-0--|  

D|--0-0-0-0-0-0-0-0--|
A|-------------------|
E|-------------------|
E|--3-3-3-3-3-2-2-2--|
B|--3-3-3-3-3-3-3-3--|
G|--0-0-0-0-0-0-0-0--|
D|--0-0-0-0-0-0-0-0--|
A|-------------------|
E|-------------------|
[G5]You said you're burnin' [E5]up inside, and n[C5]o one seems to t[G5]ell.
[G5]You're living from a [E5]personalized [C5]manual from [G5]hell.
[C5]Life it seems pre[D5]tty easy when i[G5]t's from my e[E5]asy chair.
And you're [F5]burnin' up [E5]ins[D5]ide and no one cares.
Bridge x4:
E|--3-3-3-3-3-2-2-2--|
B|--3-3-3-3-3-3-3-3--|
G|--0-0-0-0-0-0-0-0--|
D|--0-0-0-0-0-0-0-0--|
A|-------------------|
E|-------------------|



Verse:
You said you had enough this time, this town don't treat you well.
You always find coincidence, well I do parallel.


Transfer:
[C5]Life it seems pre[D5]tty easy when i[G5]t's from my e[E5]asy chair.
And you're [F5]burnin' up [E5]ins[D5]ide
And you're [F5]burnin' up [E5]ins[D5]ide
And you're [F5]burnin' up [E5]ins[D5]ide


Interlude/Solo:
(Guitar 2 Chords above guitar 1 solo)
  [E5]          [E5]          [E5]          [E5]         [E5]          [E5]          [E5]          [E5]              
E|---------------------------------0h2-5/7-7-7-7-7-7-7-7-7p3b5-/7p3b5-7/9|
B|----------10b12-12-12-12p-5--------------------------------------------|
G|9h11-9h11-------------------9h11---------------------------------------|
D|-----------------------------------------------------------------------|
A|-----------------------------------------------------------------------|
E|-----------------------------------------------------------------------|

  [E5]          [E5]          [E5]          [E5]         [E5]          [E5]          [B5]                        
E|9-9b10-10-10-10-10-10-10-10p9\7-7\5/7-7p5b7-7-9-9-9-9-9b12p9\8-8-8|
B|------------------------------------------------------------------|
G|------------------------------------------------------------------|
D|------------------------------------------------------------------|
A|------------------------------------------------------------------|
E|------------------------------------------------------------------|



Verse:
Come and take my hand tonight, I'll show you where to start.
'Cause every word that left your lips, like a needle through my heart.


Transfer:
Life it seems pretty easy when it's from my easy chair.
And you're burnin' up inside
And you're burnin' up inside
And you're burnin' up inside


Ending x4:
E|--3-3-3-3-3-2-2-2--|
B|--3-3-3-3-3-3-3-3--|
G|--0-0-0-0-0-0-0-0--|
D|--0-0-0-0-0-0-0-0--|
A|-------------------|
E|-------------------|


FINISH.
Thats all there is to it. I believe you will find that the solo riff is
most likely the only one available on the net. So this is the ultimate
Burnin' Up tab by the Goo Goo Dolls. Emails are welcome.

Important: The song above is NOT stored on the Chordie server. The original song is hosted at www.guitaretab.com. Chordie works as a search engine and provides on-the-fly formatting. Chordie does not index songs against artists'/composers' will. To remove this song please click here.

Text color:
Chord color:
Chord grids: 
Font size:    
Page size: 

B5 C5 D5 E5 F5 G5
variations - click chord images

Login - add to songbook

Transpose chords

Tuning

Rating click stars to rate

Layout
Accuracy

SHARE PAGE  




You need to log in to post comments