Guitar Tabs, Chords and Lyrics


Do You Believe In Him  Goo Goo Dolls



e ------------------      e -----------------

B ------------------ B -----------------
G ------------------ G -----------------
D ------------------ D -------4------2--
A ------------------ A -----4------2----
E -----10--9--7----- E ---2------0------
e --5---5-----4---5-----0---5-----5---------
B --5-----5---4-----5---0-----5---5---------
G --6---------5---------1---------6---------
D --7---------6---------2---------7---------
A --7---------6---------2---------7---------
E --5---------4---------0---------5---------
'Twas the[A5] night before Christmas
And [G#5]all through the house
[E5]By the color TV
(riff 1) A5
Here asleep on the couch

(verse)
All cozy and warm
With a dream for the light
Inside it's safe
On a cold Christmas night

(chorus)
E5(vii) D5
Do You believe in him?
E5(vii) D5
I don't know how long it's been
E5(vii) D5
Do you believe in him?
C#5 D5 F#5 (riff 2)
All you got to do is let him in
[C#5]All you got to [D5]do is let him [A5]in

(verse)
'Twas the night before Christmas
And out on the street
Through the window the snow such a holiday treat

(verse)
Outside the trees and the cars in the back
Are perfectly dressed for a wine when it's time

(chorus)
Do You believe in him?
I don't know how long it's been
Do you believe in him?
All you got to do is let him in
All you got to do is let him in

(verse)
'Twas the night before Xmas
A man sleeps alone
Out in the cold cause he ain't got a home

(verse)
Give him a hand, give him a share
Let's give him a smile
Instead of a stare

(chorus)
Do You believe in him?
I don't know how long it's been
Do you believe in him?
All you got to do is let him in
All you got to do is let him in

(bells)

Part under piano solo:
e -------------------------------0---------------------
B -------2---------2--------2---------3--p2------------
G -----2---2-----2---2----2---2-----2-------2-----------
D ----------------------0------------------------------
A --0----------2---------------------------------------
E -----------------------------------------------------

(play 4 times)

Solo:
A5-B5-D5-A5 (play 4 times)

Chorus:
E5(vii) D5
Do You believe in him?
E5(vii) D5
I don't know how long it's been
E5(vii) D5
Do you believe in him?
C#5 D5 F#5 (riff 2)
[C#5]               [D5]              [A5]        
Chorus:
E5(vii) D5
Do You believe in him?
E5(vii) D5
I don't know how long it's been
E5(vii) D5
Do you believe in him?
C#5 D5 F#5 (riff 2)
All you got to do is let him in
[C#5]All you got to [D5]do is let him [A5]in

[A5-D5-A5-D5]                                     
This file is copyright goo@soong.heinous.net, 1998. You are
free to use it for your personal or educational use, but permission must
be granted to post this transcription. Thank you.

Important: The song above is NOT stored on the Chordie server. The original song is hosted at www.guitaretab.com. Chordie works as a search engine and provides on-the-fly formatting. Chordie does not index songs against artists'/composers' will. To remove this song please click here.

Text color:
Chord color:
Chord grids: 
Font size:    
Page size: 

A5 C#5 D5 E5 G#5
variations - click chord images

Login - add to songbook

Transpose chords

Tuning

Rating click stars to rate

Layout
Accuracy

SHARE PAGE  




You need to log in to post comments