Guitar Tabs, Chords and Lyrics


Had Enough  Goo Goo Dolls



e ------3----------3----------3----------3-------


B ----3---3------3---3------3---3------3---3-----


G ----------0----------0----------0----------0---


D -------------0---------------------------------


A --3---------------------2----------3-----------


E -----------------------------------------------

[C5]If I leave to[D5]day, [Bm]don't know where to go that[C5] I can stay
[C5]I know what I [D5]need, b[Bm]ut I won't follow, [C5]I can lead
[G5]And when I [C5]stood there and I [Em]felt [D5]November [C5]chill
[G5]You crushed my [C5]heart and I [Em]nearly [D5]lost my w[C5]ill
Bridge:
[D5]You think you u[C5]nderstand the [D5]way you make me f[C5]eel
[D5]I started to c[C5]hoke on you cause [D5]I know what you f[C5]ear
Chorus:
e -----------------------------------------------
B -----------------------------------------------
G -----------------------------------------------
D -------2-----2---------------------------------
A -------2-----2---------------------------------
E -------0-----0----0--2--3---3--3----2---3------

Cuz I had enough and I dont really need it
e -----------------------------------------------
B -----------------------------------------------
G --2------2-------------------------------------
D --2------2-------------------------------------
A --0------0----0--2--3---3--3---2----0----------
E -----------------------------------------------

Had enough and I dont really feel it
e -----------------------------------------------
B -----------------------------------------------
G -----------------------------------------------
D -------2-----2---------------------------------
A -------2-----2---------------------------------
E -------0-----0-----0---2---3---3--3----2---3---

Had enough but you really dont see it
But you'll [A5]see it for the [B5]first time in your [C5]life
(verse)
If you had a brain you'd be smart enough to change
Watch yourself, the thoughts of you plague no one else
And when I stood there and I felt November chill
You broke my heart, and I really lost my will
(bridge)
You try to understand the way you make me feel
I started to choke on you, cause I know what you fear
(chorus)
Cause I've had enough, and I don't really need it
Had enough, and I don't really feel it
Had enough, but you really can't see it
But you'll see it for the first time in your life
(solo type thing over verse/bridge)
(chorus)
Cause I've had enough, and I don't really need it
Had enough, and I don't really feel it
Had enough, but you really can't see it
But you'll see it for the first time in your life
(solo 2)
(chorus)
Cause I've had enough, and I don't really need it
Had enough, and I don't really feel it
Had enough, but you really can't see it
But you'll see it for the first time in your life

Important: The song above is NOT stored on the Chordie server. The original song is hosted at www.guitaretab.com. Chordie works as a search engine and provides on-the-fly formatting. Chordie does not index songs against artists'/composers' will. To remove this song please click here.

Text color:
Chord color:
Chord grids: 
Font size:    
Page size: 

A5 B5 Bm C5 D5 Em G5
variations - click chord images

Login - add to songbook

Transpose chords

Tuning

Rating click stars to rate

Layout
Accuracy

SHARE PAGE  




You need to log in to post comments